  0
SECTION
  2
HEADER
  9
$ACADVER
  1
AC1009
  9
$INSBASE
 10
0.0
 20
0.0
 30
0.0
  9
$EXTMIN
 10
-5.03
 20
-5.03
 30
-1.03
  9
$EXTMAX
 10
5.03
 20
5
 30
5.03
  0
ENDSEC
  0
SECTION
  2
TABLES
  0
TABLE
  2
LTYPE
 70
     2
  0
LTYPE
  2
CONTINUOUS
 70
    64
  3
________
 72
    65
 73
     0
 40
0.0
  0
LTYPE
  2
DASHED
 70
     0
  3
__ __ __
 72
    65
 73
     2
 40
0.75
 49
0.5
 49
-0.25
  0
LTYPE
  2
DOT
 70
     0
  3
. . . .
 72
    65
 73
     2
 40
0.25
 49
0.0
 49
-0.25
  0
LTYPE
  2
DASHDOT
 70
     0
  3
_ . _ .
 72
    65
 73
     4
 40
1.0
 49
0.5
 49
-0.25
 49
-0.0
 49
-0.25
  0
LTYPE
  2
DASHDOUBLEDOT
 70
     0
  3
__..__..
 72
    65
 73
     6
 40
1.25
 49
0.5
 49
-0.25
 49
-0.0
 49
-0.25
 49
-0.0
 49
-0.25
  0
LTYPE
  2
DASHTRIPLEDOT
 70
     0
  3
__...__...__
 72
    65
 73
     8
 40
1.5
 49
0.5
 49
-0.25
 49
-0.0
 49
-0.25
 49
-0.0
 49
-0.25
 49
-0.0
 49
-0.25
  0
ENDTAB
  0
TABLE
  2
LAYER
 70
    14
  0
LAYER
  2
0
 70
    64
 62
     7
  6
CONTINUOUS
  0
LAYER
  2
CEILING
 70
    64
 62
     7
  6
CONTINUOUS
  0
LAYER
  2
FLOORBLOCK
 70
    64
 62
     7
  6
CONTINUOUS
  0
LAYER
  2
FLOORHATCHING
 70
    64
 62
     7
  6
CONTINUOUS
  0
LAYER
  2
SNAP
 70
    64
 62
     7
  6
CONTINUOUS
  0
LAYER
  2
ATTACHPOINT
 70
    64
 62
     7
  6
CONTINUOUS
  0
LAYER
  2
72_ARTEK_AKFURNITURE_D2_CH_FRA
 70
    64
 62
18
  6
CONTINUOUS
  0
LAYER
  2
72_ARTEK_AKFURNITURE_D2SNAP
 70
    64
 62
1
  6
CONTINUOUS
  0
LAYER
  2
72_ARTEK_AKFURNITURE_D2_CH_SEA
 70
    64
 62
18
  6
CONTINUOUS
  0
LAYER
  2
72_ARTEK_AKFURNITURE_D2_CH_ARM
 70
    64
 62
18
  6
CONTINUOUS
  0
LAYER
  2
72_ARTEK_AKFURNITURE_D2_CH_BAC
 70
    64
 62
18
  6
CONTINUOUS
  0
LAYER
  2
72_ARTEK_AKFURNITURE_D2_CH_FOO
 70
    64
 62
18
  6
CONTINUOUS
  0
LAYER
  2
72_ARTEK_AKFURNITURE_D2_CH_000
 70
    64
 62
8
  6
CONTINUOUS
  0
LAYER
  2
72OFGO2D01_GRAFIK
 70
    64
 62
     1
  6
CONTINUOUS
  0
ENDTAB
  0
TABLE
  2
STYLE
 70
     1
  0
STYLE
  2
STANDARD
 70
     0
 40
0.0
 41
1.0
 50
0.0
 71
     0
 42
0.2
  3
txt
  4

  0
ENDTAB
  0
TABLE
  2
APPID
 70
    64
  0
APPID
  2
ACAD
 70
    64
  0
APPID
  2
OFML_10
 70
    64
  0
ENDTAB
  0
ENDSEC
  0
SECTION
  2
BLOCKS
  0
BLOCK
  8
0
  2
OB2D__000000
 70
    64
 10
0.0
 20
0.0
 30
0.0
  3
OB2D__000000
  0
POLYLINE
  8
72_ARTEK_AKFURNITURE_D2SNAP
 66
     1
 70
     0
 10
0.0
 20
0.0
 30
0.0
  0
VERTEX
  8
72_ARTEK_AKFURNITURE_D2SNAP
 10
0.5975
 20
-0
 30
0
  0
VERTEX
  8
72_ARTEK_AKFURNITURE_D2SNAP
 10
0.59726
 20
0.00243863
 30
0
  0
VERTEX
  8
72_ARTEK_AKFURNITURE_D2SNAP
 10
0.596548
 20
0.00478354
 30
0
  0
VERTEX
  8
72_ARTEK_AKFURNITURE_D2SNAP
 10
0.595393
 20
0.00694463
 30
0
  0
VERTEX
  8
72_ARTEK_AKFURNITURE_D2SNAP
 10
0.593839
 20
0.00883883
 30
0
  0
VERTEX
  8
72_ARTEK_AKFURNITURE_D2SNAP
 10
0.591945
 20
0.0103934
 30
0
  0
VERTEX
  8
72_ARTEK_AKFURNITURE_D2SNAP
 10
0.589784
 20
0.0115485
 30
0
  0
VERTEX
  8
72_ARTEK_AKFURNITURE_D2SNAP
 10
0.587439
 20
0.0122598
 30
0
  0
VERTEX
  8
72_ARTEK_AKFURNITURE_D2SNAP
 10
0.585
 20
0.0125
 30
0
  0
VERTEX
  8
72_ARTEK_AKFURNITURE_D2SNAP
 10
0.582561
 20
0.0122598
 30
0
  0
VERTEX
  8
72_ARTEK_AKFURNITURE_D2SNAP
 10
0.580216
 20
0.0115485
 30
0
  0
VERTEX
  8
72_ARTEK_AKFURNITURE_D2SNAP
 10
0.578055
 20
0.0103934
 30
0
  0
VERTEX
  8
72_ARTEK_AKFURNITURE_D2SNAP
 10
0.576161
 20
0.00883883
 30
0
  0
VERTEX
  8
72_ARTEK_AKFURNITURE_D2SNAP
 10
0.574607
 20
0.00694463
 30
0
  0
VERTEX
  8
72_ARTEK_AKFURNITURE_D2SNAP
 10
0.573452
 20
0.00478354
 30
0
  0
VERTEX
  8
72_ARTEK_AKFURNITURE_D2SNAP
 10
0.57274
 20
0.00243863
 30
0
  0
VERTEX
  8
72_ARTEK_AKFURNITURE_D2SNAP
 10
0.5725
 20
3.15316e-018
 30
0
  0
VERTEX
  8
72_ARTEK_AKFURNITURE_D2SNAP
 10
0.57274
 20
-0.00243863
 30
0
  0
VERTEX
  8
72_ARTEK_AKFURNITURE_D2SNAP
 10
0.573452
 20
-0.00478354
 30
0
  0
VERTEX
  8
72_ARTEK_AKFURNITURE_D2SNAP
 10
0.574607
 20
-0.00694463
 30
0
  0
VERTEX
  8
72_ARTEK_AKFURNITURE_D2SNAP
 10
0.576161
 20
-0.00883883
 30
0
  0
VERTEX
  8
72_ARTEK_AKFURNITURE_D2SNAP
 10
0.578055
 20
-0.0103934
 30
0
  0
VERTEX
  8
72_ARTEK_AKFURNITURE_D2SNAP
 10
0.580216
 20
-0.0115485
 30
0
  0
VERTEX
  8
72_ARTEK_AKFURNITURE_D2SNAP
 10
0.582561
 20
-0.0122598
 30
0
  0
VERTEX
  8
72_ARTEK_AKFURNITURE_D2SNAP
 10
0.585
 20
-0.0125
 30
0
  0
VERTEX
  8
72_ARTEK_AKFURNITURE_D2SNAP
 10
0.587439
 20
-0.0122598
 30
0
  0
VERTEX
  8
72_ARTEK_AKFURNITURE_D2SNAP
 10
0.589784
 20
-0.0115485
 30
0
  0
VERTEX
  8
72_ARTEK_AKFURNITURE_D2SNAP
 10
0.591945
 20
-0.0103934
 30
0
  0
VERTEX
  8
72_ARTEK_AKFURNITURE_D2SNAP
 10
0.593839
 20
-0.00883883
 30
0
  0
VERTEX
  8
72_ARTEK_AKFURNITURE_D2SNAP
 10
0.595393
 20
-0.00694463
 30
0
  0
VERTEX
  8
72_ARTEK_AKFURNITURE_D2SNAP
 10
0.596548
 20
-0.00478354
 30
0
  0
VERTEX
  8
72_ARTEK_AKFURNITURE_D2SNAP
 10
0.59726
 20
-0.00243863
 30
0
  0
VERTEX
  8
72_ARTEK_AKFURNITURE_D2SNAP
 10
0.5975
 20
-0
 30
0
  0
SEQEND
  0
POLYLINE
  8
72_ARTEK_AKFURNITURE_D2SNAP
 66
     1
 70
     0
 10
0.0
 20
0.0
 30
0.0
  0
VERTEX
  8
72_ARTEK_AKFURNITURE_D2SNAP
 10
0.567322
 20
-0.0176777
 30
0
  0
VERTEX
  8
72_ARTEK_AKFURNITURE_D2SNAP
 10
0.602678
 20
0.0176777
 30
0
  0
SEQEND
  0
POLYLINE
  8
72_ARTEK_AKFURNITURE_D2SNAP
 66
     1
 70
     0
 10
0.0
 20
0.0
 30
0.0
  0
VERTEX
  8
72_ARTEK_AKFURNITURE_D2SNAP
 10
0.567322
 20
0.0176777
 30
0
  0
VERTEX
  8
72_ARTEK_AKFURNITURE_D2SNAP
 10
0.602678
 20
-0.0176777
 30
0
  0
SEQEND
  0
POLYLINE
  8
72_ARTEK_AKFURNITURE_D2_CH_FOO
 66
     1
 70
     0
 10
0.0
 20
0.0
 30
0.0
  0
VERTEX
  8
72_ARTEK_AKFURNITURE_D2_CH_FOO
 10
1.154
 20
-0.110281
 30
0
  0
VERTEX
  8
72_ARTEK_AKFURNITURE_D2_CH_FOO
 10
1.15
 20
-0.110281
 30
0
  0
VERTEX
  8
72_ARTEK_AKFURNITURE_D2_CH_FOO
 10
1.15
 20
-0.0922813
 30
0
  0
VERTEX
  8
72_ARTEK_AKFURNITURE_D2_CH_FOO
 10
1.154
 20
-0.0922813
 30
0
  0
VERTEX
  8
72_ARTEK_AKFURNITURE_D2_CH_FOO
 10
1.154
 20
0.109422
 30
0
  0
VERTEX
  8
72_ARTEK_AKFURNITURE_D2_CH_FOO
 10
1.15
 20
0.109422
 30
0
  0
VERTEX
  8
72_ARTEK_AKFURNITURE_D2_CH_FOO
 10
1.15
 20
0.127422
 30
0
  0
VERTEX
  8
72_ARTEK_AKFURNITURE_D2_CH_FOO
 10
1.154
 20
0.127422
 30
0
  0
VERTEX
  8
72_ARTEK_AKFURNITURE_D2_CH_FOO
 10
1.154
 20
0.300233
 30
0
  0
VERTEX
  8
72_ARTEK_AKFURNITURE_D2_CH_FOO
 10
1.154
 20
0.300233
 30
0
  0
VERTEX
  8
72_ARTEK_AKFURNITURE_D2_CH_FOO
 10
1.15414
 20
0.298763
 30
0
  0
VERTEX
  8
72_ARTEK_AKFURNITURE_D2_CH_FOO
 10
1.15454
 20
0.297343
 30
0
  0
VERTEX
  8
72_ARTEK_AKFURNITURE_D2_CH_FOO
 10
1.1552
 20
0.296022
 30
0
  0
VERTEX
  8
72_ARTEK_AKFURNITURE_D2_CH_FOO
 10
1.15609
 20
0.294844
 30
0
  0
VERTEX
  8
72_ARTEK_AKFURNITURE_D2_CH_FOO
 10
1.15718
 20
0.293849
 30
0
  0
VERTEX
  8
72_ARTEK_AKFURNITURE_D2_CH_FOO
 10
1.15843
 20
0.293072
 30
0
  0
VERTEX
  8
72_ARTEK_AKFURNITURE_D2_CH_FOO
 10
1.15981
 20
0.292539
 30
0
  0
VERTEX
  8
72_ARTEK_AKFURNITURE_D2_CH_FOO
 10
1.16126
 20
0.292268
 30
0
  0
VERTEX
  8
72_ARTEK_AKFURNITURE_D2_CH_FOO
 10
1.16274
 20
0.292268
 30
0
  0
VERTEX
  8
72_ARTEK_AKFURNITURE_D2_CH_FOO
 10
1.16419
 20
0.292539
 30
0
  0
VERTEX
  8
72_ARTEK_AKFURNITURE_D2_CH_FOO
 10
1.16557
 20
0.293072
 30
0
  0
VERTEX
  8
72_ARTEK_AKFURNITURE_D2_CH_FOO
 10
1.16682
 20
0.293849
 30
0
  0
VERTEX
  8
72_ARTEK_AKFURNITURE_D2_CH_FOO
 10
1.16791
 20
0.294844
 30
0
  0
VERTEX
  8
72_ARTEK_AKFURNITURE_D2_CH_FOO
 10
1.1688
 20
0.296022
 30
0
  0
VERTEX
  8
72_ARTEK_AKFURNITURE_D2_CH_FOO
 10
1.16946
 20
0.297343
 30
0
  0
VERTEX
  8
72_ARTEK_AKFURNITURE_D2_CH_FOO
 10
1.16986
 20
0.298763
 30
0
  0
VERTEX
  8
72_ARTEK_AKFURNITURE_D2_CH_FOO
 10
1.17
 20
0.300233
 30
0
  0
VERTEX
  8
72_ARTEK_AKFURNITURE_D2_CH_FOO
 10
1.17
 20
-0.298767
 30
0
  0
VERTEX
  8
72_ARTEK_AKFURNITURE_D2_CH_FOO
 10
1.17
 20
-0.298767
 30
0
  0
VERTEX
  8
72_ARTEK_AKFURNITURE_D2_CH_FOO
 10
1.16986
 20
-0.297297
 30
0
  0
VERTEX
  8
72_ARTEK_AKFURNITURE_D2_CH_FOO
 10
1.16946
 20
-0.295877
 30
0
  0
VERTEX
  8
72_ARTEK_AKFURNITURE_D2_CH_FOO
 10
1.1688
 20
-0.294555
 30
0
  0
VERTEX
  8
72_ARTEK_AKFURNITURE_D2_CH_FOO
 10
1.16791
 20
-0.293377
 30
0
  0
VERTEX
  8
72_ARTEK_AKFURNITURE_D2_CH_FOO
 10
1.16682
 20
-0.292382
 30
0
  0
VERTEX
  8
72_ARTEK_AKFURNITURE_D2_CH_FOO
 10
1.16557
 20
-0.291605
 30
0
  0
VERTEX
  8
72_ARTEK_AKFURNITURE_D2_CH_FOO
 10
1.16419
 20
-0.291072
 30
0
  0
VERTEX
  8
72_ARTEK_AKFURNITURE_D2_CH_FOO
 10
1.16274
 20
-0.290801
 30
0
  0
VERTEX
  8
72_ARTEK_AKFURNITURE_D2_CH_FOO
 10
1.16126
 20
-0.290801
 30
0
  0
VERTEX
  8
72_ARTEK_AKFURNITURE_D2_CH_FOO
 10
1.15981
 20
-0.291072
 30
0
  0
VERTEX
  8
72_ARTEK_AKFURNITURE_D2_CH_FOO
 10
1.15843
 20
-0.291605
 30
0
  0
VERTEX
  8
72_ARTEK_AKFURNITURE_D2_CH_FOO
 10
1.15718
 20
-0.292382
 30
0
  0
VERTEX
  8
72_ARTEK_AKFURNITURE_D2_CH_FOO
 10
1.15609
 20
-0.293377
 30
0
  0
VERTEX
  8
72_ARTEK_AKFURNITURE_D2_CH_FOO
 10
1.1552
 20
-0.294555
 30
0
  0
VERTEX
  8
72_ARTEK_AKFURNITURE_D2_CH_FOO
 10
1.15454
 20
-0.295877
 30
0
  0
VERTEX
  8
72_ARTEK_AKFURNITURE_D2_CH_FOO
 10
1.15414
 20
-0.297297
 30
0
  0
VERTEX
  8
72_ARTEK_AKFURNITURE_D2_CH_FOO
 10
1.154
 20
-0.298767
 30
0
  0
VERTEX
  8
72_ARTEK_AKFURNITURE_D2_CH_FOO
 10
1.154
 20
-0.110281
 30
0
  0
SEQEND
  0
POLYLINE
  8
72_ARTEK_AKFURNITURE_D2_CH_FOO
 66
     1
 70
     0
 10
0.0
 20
0.0
 30
0.0
  0
VERTEX
  8
72_ARTEK_AKFURNITURE_D2_CH_FOO
 10
1.17
 20
0.315233
 30
0
  0
VERTEX
  8
72_ARTEK_AKFURNITURE_D2_CH_FOO
 10
1.17
 20
0.300233
 30
0
  0
VERTEX
  8
72_ARTEK_AKFURNITURE_D2_CH_FOO
 10
1.17
 20
0.300233
 30
0
  0
VERTEX
  8
72_ARTEK_AKFURNITURE_D2_CH_FOO
 10
1.16986
 20
0.298763
 30
0
  0
VERTEX
  8
72_ARTEK_AKFURNITURE_D2_CH_FOO
 10
1.16946
 20
0.297343
 30
0
  0
VERTEX
  8
72_ARTEK_AKFURNITURE_D2_CH_FOO
 10
1.1688
 20
0.296022
 30
0
  0
VERTEX
  8
72_ARTEK_AKFURNITURE_D2_CH_FOO
 10
1.16791
 20
0.294844
 30
0
  0
VERTEX
  8
72_ARTEK_AKFURNITURE_D2_CH_FOO
 10
1.16682
 20
0.293849
 30
0
  0
VERTEX
  8
72_ARTEK_AKFURNITURE_D2_CH_FOO
 10
1.16557
 20
0.293072
 30
0
  0
VERTEX
  8
72_ARTEK_AKFURNITURE_D2_CH_FOO
 10
1.16419
 20
0.292539
 30
0
  0
VERTEX
  8
72_ARTEK_AKFURNITURE_D2_CH_FOO
 10
1.16274
 20
0.292268
 30
0
  0
VERTEX
  8
72_ARTEK_AKFURNITURE_D2_CH_FOO
 10
1.16126
 20
0.292268
 30
0
  0
VERTEX
  8
72_ARTEK_AKFURNITURE_D2_CH_FOO
 10
1.15981
 20
0.292539
 30
0
  0
VERTEX
  8
72_ARTEK_AKFURNITURE_D2_CH_FOO
 10
1.15843
 20
0.293072
 30
0
  0
VERTEX
  8
72_ARTEK_AKFURNITURE_D2_CH_FOO
 10
1.15718
 20
0.293849
 30
0
  0
VERTEX
  8
72_ARTEK_AKFURNITURE_D2_CH_FOO
 10
1.15609
 20
0.294844
 30
0
  0
VERTEX
  8
72_ARTEK_AKFURNITURE_D2_CH_FOO
 10
1.1552
 20
0.296022
 30
0
  0
VERTEX
  8
72_ARTEK_AKFURNITURE_D2_CH_FOO
 10
1.15454
 20
0.297343
 30
0
  0
VERTEX
  8
72_ARTEK_AKFURNITURE_D2_CH_FOO
 10
1.15414
 20
0.298763
 30
0
  0
VERTEX
  8
72_ARTEK_AKFURNITURE_D2_CH_FOO
 10
1.154
 20
0.300233
 30
0
  0
VERTEX
  8
72_ARTEK_AKFURNITURE_D2_CH_FOO
 10
1.154
 20
0.315233
 30
0
  0
VERTEX
  8
72_ARTEK_AKFURNITURE_D2_CH_FOO
 10
1.154
 20
0.315233
 30
0
  0
VERTEX
  8
72_ARTEK_AKFURNITURE_D2_CH_FOO
 10
1.15414
 20
0.316703
 30
0
  0
VERTEX
  8
72_ARTEK_AKFURNITURE_D2_CH_FOO
 10
1.15454
 20
0.318123
 30
0
  0
VERTEX
  8
72_ARTEK_AKFURNITURE_D2_CH_FOO
 10
1.1552
 20
0.319445
 30
0
  0
VERTEX
  8
72_ARTEK_AKFURNITURE_D2_CH_FOO
 10
1.15609
 20
0.320623
 30
0
  0
VERTEX
  8
72_ARTEK_AKFURNITURE_D2_CH_FOO
 10
1.15718
 20
0.321618
 30
0
  0
VERTEX
  8
72_ARTEK_AKFURNITURE_D2_CH_FOO
 10
1.15843
 20
0.322395
 30
0
  0
VERTEX
  8
72_ARTEK_AKFURNITURE_D2_CH_FOO
 10
1.15981
 20
0.322928
 30
0
  0
VERTEX
  8
72_ARTEK_AKFURNITURE_D2_CH_FOO
 10
1.16126
 20
0.323199
 30
0
  0
VERTEX
  8
72_ARTEK_AKFURNITURE_D2_CH_FOO
 10
1.16274
 20
0.323199
 30
0
  0
VERTEX
  8
72_ARTEK_AKFURNITURE_D2_CH_FOO
 10
1.16419
 20
0.322928
 30
0
  0
VERTEX
  8
72_ARTEK_AKFURNITURE_D2_CH_FOO
 10
1.16557
 20
0.322395
 30
0
  0
VERTEX
  8
72_ARTEK_AKFURNITURE_D2_CH_FOO
 10
1.16682
 20
0.321618
 30
0
  0
VERTEX
  8
72_ARTEK_AKFURNITURE_D2_CH_FOO
 10
1.16791
 20
0.320623
 30
0
  0
VERTEX
  8
72_ARTEK_AKFURNITURE_D2_CH_FOO
 10
1.1688
 20
0.319445
 30
0
  0
VERTEX
  8
72_ARTEK_AKFURNITURE_D2_CH_FOO
 10
1.16946
 20
0.318123
 30
0
  0
VERTEX
  8
72_ARTEK_AKFURNITURE_D2_CH_FOO
 10
1.16986
 20
0.316703
 30
0
  0
VERTEX
  8
72_ARTEK_AKFURNITURE_D2_CH_FOO
 10
1.17
 20
0.315233
 30
0
  0
SEQEND
  0
POLYLINE
  8
72_ARTEK_AKFURNITURE_D2_CH_FOO
 66
     1
 70
     0
 10
0.0
 20
0.0
 30
0.0
  0
VERTEX
  8
72_ARTEK_AKFURNITURE_D2_CH_FOO
 10
1.15
 20
0.298733
 30
0
  0
VERTEX
  8
72_ARTEK_AKFURNITURE_D2_CH_FOO
 10
1.15
 20
0.316733
 30
0
  0
VERTEX
  8
72_ARTEK_AKFURNITURE_D2_CH_FOO
 10
1.154
 20
0.316733
 30
0
  0
VERTEX
  8
72_ARTEK_AKFURNITURE_D2_CH_FOO
 10
1.154
 20
0.298733
 30
0
  0
VERTEX
  8
72_ARTEK_AKFURNITURE_D2_CH_FOO
 10
1.15
 20
0.298733
 30
0
  0
SEQEND
  0
POLYLINE
  8
72_ARTEK_AKFURNITURE_D2_CH_FOO
 66
     1
 70
     0
 10
0.0
 20
0.0
 30
0.0
  0
VERTEX
  8
72_ARTEK_AKFURNITURE_D2_CH_FOO
 10
1.17
 20
-0.298767
 30
0
  0
VERTEX
  8
72_ARTEK_AKFURNITURE_D2_CH_FOO
 10
1.17
 20
-0.313767
 30
0
  0
VERTEX
  8
72_ARTEK_AKFURNITURE_D2_CH_FOO
 10
1.17
 20
-0.313767
 30
0
  0
VERTEX
  8
72_ARTEK_AKFURNITURE_D2_CH_FOO
 10
1.16986
 20
-0.315237
 30
0
  0
VERTEX
  8
72_ARTEK_AKFURNITURE_D2_CH_FOO
 10
1.16946
 20
-0.316657
 30
0
  0
VERTEX
  8
72_ARTEK_AKFURNITURE_D2_CH_FOO
 10
1.1688
 20
-0.317978
 30
0
  0
VERTEX
  8
72_ARTEK_AKFURNITURE_D2_CH_FOO
 10
1.16791
 20
-0.319156
 30
0
  0
VERTEX
  8
72_ARTEK_AKFURNITURE_D2_CH_FOO
 10
1.16682
 20
-0.320151
 30
0
  0
VERTEX
  8
72_ARTEK_AKFURNITURE_D2_CH_FOO
 10
1.16557
 20
-0.320928
 30
0
  0
VERTEX
  8
72_ARTEK_AKFURNITURE_D2_CH_FOO
 10
1.16419
 20
-0.321461
 30
0
  0
VERTEX
  8
72_ARTEK_AKFURNITURE_D2_CH_FOO
 10
1.16274
 20
-0.321732
 30
0
  0
VERTEX
  8
72_ARTEK_AKFURNITURE_D2_CH_FOO
 10
1.16126
 20
-0.321733
 30
0
  0
VERTEX
  8
72_ARTEK_AKFURNITURE_D2_CH_FOO
 10
1.15981
 20
-0.321461
 30
0
  0
VERTEX
  8
72_ARTEK_AKFURNITURE_D2_CH_FOO
 10
1.15843
 20
-0.320928
 30
0
  0
VERTEX
  8
72_ARTEK_AKFURNITURE_D2_CH_FOO
 10
1.15718
 20
-0.320151
 30
0
  0
VERTEX
  8
72_ARTEK_AKFURNITURE_D2_CH_FOO
 10
1.15609
 20
-0.319156
 30
0
  0
VERTEX
  8
72_ARTEK_AKFURNITURE_D2_CH_FOO
 10
1.1552
 20
-0.317978
 30
0
  0
VERTEX
  8
72_ARTEK_AKFURNITURE_D2_CH_FOO
 10
1.15454
 20
-0.316657
 30
0
  0
VERTEX
  8
72_ARTEK_AKFURNITURE_D2_CH_FOO
 10
1.15414
 20
-0.315237
 30
0
  0
VERTEX
  8
72_ARTEK_AKFURNITURE_D2_CH_FOO
 10
1.154
 20
-0.313767
 30
0
  0
VERTEX
  8
72_ARTEK_AKFURNITURE_D2_CH_FOO
 10
1.154
 20
-0.298767
 30
0
  0
VERTEX
  8
72_ARTEK_AKFURNITURE_D2_CH_FOO
 10
1.154
 20
-0.298767
 30
0
  0
VERTEX
  8
72_ARTEK_AKFURNITURE_D2_CH_FOO
 10
1.15414
 20
-0.297297
 30
0
  0
VERTEX
  8
72_ARTEK_AKFURNITURE_D2_CH_FOO
 10
1.15454
 20
-0.295877
 30
0
  0
VERTEX
  8
72_ARTEK_AKFURNITURE_D2_CH_FOO
 10
1.1552
 20
-0.294555
 30
0
  0
VERTEX
  8
72_ARTEK_AKFURNITURE_D2_CH_FOO
 10
1.15609
 20
-0.293377
 30
0
  0
VERTEX
  8
72_ARTEK_AKFURNITURE_D2_CH_FOO
 10
1.15718
 20
-0.292382
 30
0
  0
VERTEX
  8
72_ARTEK_AKFURNITURE_D2_CH_FOO
 10
1.15843
 20
-0.291605
 30
0
  0
VERTEX
  8
72_ARTEK_AKFURNITURE_D2_CH_FOO
 10
1.15981
 20
-0.291072
 30
0
  0
VERTEX
  8
72_ARTEK_AKFURNITURE_D2_CH_FOO
 10
1.16126
 20
-0.290801
 30
0
  0
VERTEX
  8
72_ARTEK_AKFURNITURE_D2_CH_FOO
 10
1.16274
 20
-0.290801
 30
0
  0
VERTEX
  8
72_ARTEK_AKFURNITURE_D2_CH_FOO
 10
1.16419
 20
-0.291072
 30
0
  0
VERTEX
  8
72_ARTEK_AKFURNITURE_D2_CH_FOO
 10
1.16557
 20
-0.291605
 30
0
  0
VERTEX
  8
72_ARTEK_AKFURNITURE_D2_CH_FOO
 10
1.16682
 20
-0.292382
 30
0
  0
VERTEX
  8
72_ARTEK_AKFURNITURE_D2_CH_FOO
 10
1.16791
 20
-0.293377
 30
0
  0
VERTEX
  8
72_ARTEK_AKFURNITURE_D2_CH_FOO
 10
1.1688
 20
-0.294555
 30
0
  0
VERTEX
  8
72_ARTEK_AKFURNITURE_D2_CH_FOO
 10
1.16946
 20
-0.295877
 30
0
  0
VERTEX
  8
72_ARTEK_AKFURNITURE_D2_CH_FOO
 10
1.16986
 20
-0.297297
 30
0
  0
VERTEX
  8
72_ARTEK_AKFURNITURE_D2_CH_FOO
 10
1.17
 20
-0.298767
 30
0
  0
SEQEND
  0
POLYLINE
  8
72_ARTEK_AKFURNITURE_D2_CH_FOO
 66
     1
 70
     0
 10
0.0
 20
0.0
 30
0.0
  0
VERTEX
  8
72_ARTEK_AKFURNITURE_D2_CH_FOO
 10
1.15
 20
-0.315267
 30
0
  0
VERTEX
  8
72_ARTEK_AKFURNITURE_D2_CH_FOO
 10
1.15
 20
-0.297267
 30
0
  0
VERTEX
  8
72_ARTEK_AKFURNITURE_D2_CH_FOO
 10
1.154
 20
-0.297267
 30
0
  0
VERTEX
  8
72_ARTEK_AKFURNITURE_D2_CH_FOO
 10
1.154
 20
-0.315267
 30
0
  0
VERTEX
  8
72_ARTEK_AKFURNITURE_D2_CH_FOO
 10
1.15
 20
-0.315267
 30
0
  0
SEQEND
  0
POLYLINE
  8
72_ARTEK_AKFURNITURE_D2_CH_FOO
 66
     1
 70
     0
 10
0.0
 20
0.0
 30
0.0
  0
VERTEX
  8
72_ARTEK_AKFURNITURE_D2_CH_FOO
 10
0.016
 20
-0.110281
 30
0
  0
VERTEX
  8
72_ARTEK_AKFURNITURE_D2_CH_FOO
 10
0.02
 20
-0.110281
 30
0
  0
VERTEX
  8
72_ARTEK_AKFURNITURE_D2_CH_FOO
 10
0.02
 20
-0.0922813
 30
0
  0
VERTEX
  8
72_ARTEK_AKFURNITURE_D2_CH_FOO
 10
0.016
 20
-0.0922813
 30
0
  0
VERTEX
  8
72_ARTEK_AKFURNITURE_D2_CH_FOO
 10
0.016
 20
0.109422
 30
0
  0
VERTEX
  8
72_ARTEK_AKFURNITURE_D2_CH_FOO
 10
0.02
 20
0.109422
 30
0
  0
VERTEX
  8
72_ARTEK_AKFURNITURE_D2_CH_FOO
 10
0.02
 20
0.127422
 30
0
  0
VERTEX
  8
72_ARTEK_AKFURNITURE_D2_CH_FOO
 10
0.016
 20
0.127422
 30
0
  0
VERTEX
  8
72_ARTEK_AKFURNITURE_D2_CH_FOO
 10
0.016
 20
0.300233
 30
0
  0
VERTEX
  8
72_ARTEK_AKFURNITURE_D2_CH_FOO
 10
0.016
 20
0.300233
 30
0
  0
VERTEX
  8
72_ARTEK_AKFURNITURE_D2_CH_FOO
 10
0.0158638
 20
0.298763
 30
0
  0
VERTEX
  8
72_ARTEK_AKFURNITURE_D2_CH_FOO
 10
0.0154598
 20
0.297343
 30
0
  0
VERTEX
  8
72_ARTEK_AKFURNITURE_D2_CH_FOO
 10
0.0148017
 20
0.296022
 30
0
  0
VERTEX
  8
72_ARTEK_AKFURNITURE_D2_CH_FOO
 10
0.013912
 20
0.294844
 30
0
  0
VERTEX
  8
72_ARTEK_AKFURNITURE_D2_CH_FOO
 10
0.012821
 20
0.293849
 30
0
  0
VERTEX
  8
72_ARTEK_AKFURNITURE_D2_CH_FOO
 10
0.0115659
 20
0.293072
 30
0
  0
VERTEX
  8
72_ARTEK_AKFURNITURE_D2_CH_FOO
 10
0.0101893
 20
0.292539
 30
0
  0
VERTEX
  8
72_ARTEK_AKFURNITURE_D2_CH_FOO
 10
0.00873812
 20
0.292268
 30
0
  0
VERTEX
  8
72_ARTEK_AKFURNITURE_D2_CH_FOO
 10
0.00726183
 20
0.292268
 30
0
  0
VERTEX
  8
72_ARTEK_AKFURNITURE_D2_CH_FOO
 10
0.00581067
 20
0.292539
 30
0
  0
VERTEX
  8
72_ARTEK_AKFURNITURE_D2_CH_FOO
 10
0.00443407
 20
0.293072
 30
0
  0
VERTEX
  8
72_ARTEK_AKFURNITURE_D2_CH_FOO
 10
0.00317891
 20
0.293849
 30
0
  0
VERTEX
  8
72_ARTEK_AKFURNITURE_D2_CH_FOO
 10
0.00208792
 20
0.294844
 30
0
  0
VERTEX
  8
72_ARTEK_AKFURNITURE_D2_CH_FOO
 10
0.00119826
 20
0.296022
 30
0
  0
VERTEX
  8
72_ARTEK_AKFURNITURE_D2_CH_FOO
 10
0.000540229
 20
0.297343
 30
0
  0
VERTEX
  8
72_ARTEK_AKFURNITURE_D2_CH_FOO
 10
0.000136232
 20
0.298763
 30
0
  0
VERTEX
  8
72_ARTEK_AKFURNITURE_D2_CH_FOO
 10
2.67029e-008
 20
0.300233
 30
0
  0
VERTEX
  8
72_ARTEK_AKFURNITURE_D2_CH_FOO
 10
2.67029e-008
 20
-0.298767
 30
0
  0
VERTEX
  8
72_ARTEK_AKFURNITURE_D2_CH_FOO
 10
2.67029e-008
 20
-0.298767
 30
0
  0
VERTEX
  8
72_ARTEK_AKFURNITURE_D2_CH_FOO
 10
0.000136232
 20
-0.297297
 30
0
  0
VERTEX
  8
72_ARTEK_AKFURNITURE_D2_CH_FOO
 10
0.000540231
 20
-0.295877
 30
0
  0
VERTEX
  8
72_ARTEK_AKFURNITURE_D2_CH_FOO
 10
0.00119827
 20
-0.294555
 30
0
  0
VERTEX
  8
72_ARTEK_AKFURNITURE_D2_CH_FOO
 10
0.00208793
 20
-0.293377
 30
0
  0
VERTEX
  8
72_ARTEK_AKFURNITURE_D2_CH_FOO
 10
0.00317892
 20
-0.292382
 30
0
  0
VERTEX
  8
72_ARTEK_AKFURNITURE_D2_CH_FOO
 10
0.00443409
 20
-0.291605
 30
0
  0
VERTEX
  8
72_ARTEK_AKFURNITURE_D2_CH_FOO
 10
0.00581069
 20
-0.291072
 30
0
  0
VERTEX
  8
72_ARTEK_AKFURNITURE_D2_CH_FOO
 10
0.00726185
 20
-0.290801
 30
0
  0
VERTEX
  8
72_ARTEK_AKFURNITURE_D2_CH_FOO
 10
0.00873815
 20
-0.290801
 30
0
  0
VERTEX
  8
72_ARTEK_AKFURNITURE_D2_CH_FOO
 10
0.0101893
 20
-0.291072
 30
0
  0
VERTEX
  8
72_ARTEK_AKFURNITURE_D2_CH_FOO
 10
0.0115659
 20
-0.291605
 30
0
  0
VERTEX
  8
72_ARTEK_AKFURNITURE_D2_CH_FOO
 10
0.0128211
 20
-0.292382
 30
0
  0
VERTEX
  8
72_ARTEK_AKFURNITURE_D2_CH_FOO
 10
0.0139121
 20
-0.293377
 30
0
  0
VERTEX
  8
72_ARTEK_AKFURNITURE_D2_CH_FOO
 10
0.0148017
 20
-0.294555
 30
0
  0
VERTEX
  8
72_ARTEK_AKFURNITURE_D2_CH_FOO
 10
0.0154598
 20
-0.295877
 30
0
  0
VERTEX
  8
72_ARTEK_AKFURNITURE_D2_CH_FOO
 10
0.0158638
 20
-0.297297
 30
0
  0
VERTEX
  8
72_ARTEK_AKFURNITURE_D2_CH_FOO
 10
0.016
 20
-0.298767
 30
0
  0
VERTEX
  8
72_ARTEK_AKFURNITURE_D2_CH_FOO
 10
0.016
 20
-0.110281
 30
0
  0
SEQEND
  0
POLYLINE
  8
72_ARTEK_AKFURNITURE_D2_CH_FOO
 66
     1
 70
     0
 10
0.0
 20
0.0
 30
0.0
  0
VERTEX
  8
72_ARTEK_AKFURNITURE_D2_CH_FOO
 10
2.67029e-008
 20
0.315233
 30
0
  0
VERTEX
  8
72_ARTEK_AKFURNITURE_D2_CH_FOO
 10
2.67029e-008
 20
0.300233
 30
0
  0
VERTEX
  8
72_ARTEK_AKFURNITURE_D2_CH_FOO
 10
2.67029e-008
 20
0.300233
 30
0
  0
VERTEX
  8
72_ARTEK_AKFURNITURE_D2_CH_FOO
 10
0.000136232
 20
0.298763
 30
0
  0
VERTEX
  8
72_ARTEK_AKFURNITURE_D2_CH_FOO
 10
0.000540229
 20
0.297343
 30
0
  0
VERTEX
  8
72_ARTEK_AKFURNITURE_D2_CH_FOO
 10
0.00119826
 20
0.296022
 30
0
  0
VERTEX
  8
72_ARTEK_AKFURNITURE_D2_CH_FOO
 10
0.00208792
 20
0.294844
 30
0
  0
VERTEX
  8
72_ARTEK_AKFURNITURE_D2_CH_FOO
 10
0.00317891
 20
0.293849
 30
0
  0
VERTEX
  8
72_ARTEK_AKFURNITURE_D2_CH_FOO
 10
0.00443407
 20
0.293072
 30
0
  0
VERTEX
  8
72_ARTEK_AKFURNITURE_D2_CH_FOO
 10
0.00581067
 20
0.292539
 30
0
  0
VERTEX
  8
72_ARTEK_AKFURNITURE_D2_CH_FOO
 10
0.00726183
 20
0.292268
 30
0
  0
VERTEX
  8
72_ARTEK_AKFURNITURE_D2_CH_FOO
 10
0.00873812
 20
0.292268
 30
0
  0
VERTEX
  8
72_ARTEK_AKFURNITURE_D2_CH_FOO
 10
0.0101893
 20
0.292539
 30
0
  0
VERTEX
  8
72_ARTEK_AKFURNITURE_D2_CH_FOO
 10
0.0115659
 20
0.293072
 30
0
  0
VERTEX
  8
72_ARTEK_AKFURNITURE_D2_CH_FOO
 10
0.012821
 20
0.293849
 30
0
  0
VERTEX
  8
72_ARTEK_AKFURNITURE_D2_CH_FOO
 10
0.013912
 20
0.294844
 30
0
  0
VERTEX
  8
72_ARTEK_AKFURNITURE_D2_CH_FOO
 10
0.0148017
 20
0.296022
 30
0
  0
VERTEX
  8
72_ARTEK_AKFURNITURE_D2_CH_FOO
 10
0.0154598
 20
0.297343
 30
0
  0
VERTEX
  8
72_ARTEK_AKFURNITURE_D2_CH_FOO
 10
0.0158638
 20
0.298763
 30
0
  0
VERTEX
  8
72_ARTEK_AKFURNITURE_D2_CH_FOO
 10
0.016
 20
0.300233
 30
0
  0
VERTEX
  8
72_ARTEK_AKFURNITURE_D2_CH_FOO
 10
0.016
 20
0.315233
 30
0
  0
VERTEX
  8
72_ARTEK_AKFURNITURE_D2_CH_FOO
 10
0.016
 20
0.315233
 30
0
  0
VERTEX
  8
72_ARTEK_AKFURNITURE_D2_CH_FOO
 10
0.0158638
 20
0.316703
 30
0
  0
VERTEX
  8
72_ARTEK_AKFURNITURE_D2_CH_FOO
 10
0.0154598
 20
0.318123
 30
0
  0
VERTEX
  8
72_ARTEK_AKFURNITURE_D2_CH_FOO
 10
0.0148017
 20
0.319445
 30
0
  0
VERTEX
  8
72_ARTEK_AKFURNITURE_D2_CH_FOO
 10
0.0139121
 20
0.320623
 30
0
  0
VERTEX
  8
72_ARTEK_AKFURNITURE_D2_CH_FOO
 10
0.0128211
 20
0.321618
 30
0
  0
VERTEX
  8
72_ARTEK_AKFURNITURE_D2_CH_FOO
 10
0.0115659
 20
0.322395
 30
0
  0
VERTEX
  8
72_ARTEK_AKFURNITURE_D2_CH_FOO
 10
0.0101893
 20
0.322928
 30
0
  0
VERTEX
  8
72_ARTEK_AKFURNITURE_D2_CH_FOO
 10
0.00873815
 20
0.323199
 30
0
  0
VERTEX
  8
72_ARTEK_AKFURNITURE_D2_CH_FOO
 10
0.00726185
 20
0.323199
 30
0
  0
VERTEX
  8
72_ARTEK_AKFURNITURE_D2_CH_FOO
 10
0.00581069
 20
0.322928
 30
0
  0
VERTEX
  8
72_ARTEK_AKFURNITURE_D2_CH_FOO
 10
0.00443409
 20
0.322395
 30
0
  0
VERTEX
  8
72_ARTEK_AKFURNITURE_D2_CH_FOO
 10
0.00317892
 20
0.321618
 30
0
  0
VERTEX
  8
72_ARTEK_AKFURNITURE_D2_CH_FOO
 10
0.00208793
 20
0.320623
 30
0
  0
VERTEX
  8
72_ARTEK_AKFURNITURE_D2_CH_FOO
 10
0.00119827
 20
0.319445
 30
0
  0
VERTEX
  8
72_ARTEK_AKFURNITURE_D2_CH_FOO
 10
0.000540231
 20
0.318123
 30
0
  0
VERTEX
  8
72_ARTEK_AKFURNITURE_D2_CH_FOO
 10
0.000136232
 20
0.316703
 30
0
  0
VERTEX
  8
72_ARTEK_AKFURNITURE_D2_CH_FOO
 10
2.67029e-008
 20
0.315233
 30
0
  0
SEQEND
  0
POLYLINE
  8
72_ARTEK_AKFURNITURE_D2_CH_FOO
 66
     1
 70
     0
 10
0.0
 20
0.0
 30
0.0
  0
VERTEX
  8
72_ARTEK_AKFURNITURE_D2_CH_FOO
 10
0.02
 20
0.298733
 30
0
  0
VERTEX
  8
72_ARTEK_AKFURNITURE_D2_CH_FOO
 10
0.02
 20
0.316733
 30
0
  0
VERTEX
  8
72_ARTEK_AKFURNITURE_D2_CH_FOO
 10
0.016
 20
0.316733
 30
0
  0
VERTEX
  8
72_ARTEK_AKFURNITURE_D2_CH_FOO
 10
0.016
 20
0.298733
 30
0
  0
VERTEX
  8
72_ARTEK_AKFURNITURE_D2_CH_FOO
 10
0.02
 20
0.298733
 30
0
  0
SEQEND
  0
POLYLINE
  8
72_ARTEK_AKFURNITURE_D2_CH_FOO
 66
     1
 70
     0
 10
0.0
 20
0.0
 30
0.0
  0
VERTEX
  8
72_ARTEK_AKFURNITURE_D2_CH_FOO
 10
2.67029e-008
 20
-0.298767
 30
0
  0
VERTEX
  8
72_ARTEK_AKFURNITURE_D2_CH_FOO
 10
2.67029e-008
 20
-0.313767
 30
0
  0
VERTEX
  8
72_ARTEK_AKFURNITURE_D2_CH_FOO
 10
2.67029e-008
 20
-0.313767
 30
0
  0
VERTEX
  8
72_ARTEK_AKFURNITURE_D2_CH_FOO
 10
0.000136232
 20
-0.315237
 30
0
  0
VERTEX
  8
72_ARTEK_AKFURNITURE_D2_CH_FOO
 10
0.000540229
 20
-0.316657
 30
0
  0
VERTEX
  8
72_ARTEK_AKFURNITURE_D2_CH_FOO
 10
0.00119826
 20
-0.317978
 30
0
  0
VERTEX
  8
72_ARTEK_AKFURNITURE_D2_CH_FOO
 10
0.00208792
 20
-0.319156
 30
0
  0
VERTEX
  8
72_ARTEK_AKFURNITURE_D2_CH_FOO
 10
0.00317891
 20
-0.320151
 30
0
  0
VERTEX
  8
72_ARTEK_AKFURNITURE_D2_CH_FOO
 10
0.00443407
 20
-0.320928
 30
0
  0
VERTEX
  8
72_ARTEK_AKFURNITURE_D2_CH_FOO
 10
0.00581067
 20
-0.321461
 30
0
  0
VERTEX
  8
72_ARTEK_AKFURNITURE_D2_CH_FOO
 10
0.00726183
 20
-0.321732
 30
0
  0
VERTEX
  8
72_ARTEK_AKFURNITURE_D2_CH_FOO
 10
0.00873812
 20
-0.321733
 30
0
  0
VERTEX
  8
72_ARTEK_AKFURNITURE_D2_CH_FOO
 10
0.0101893
 20
-0.321461
 30
0
  0
VERTEX
  8
72_ARTEK_AKFURNITURE_D2_CH_FOO
 10
0.0115659
 20
-0.320928
 30
0
  0
VERTEX
  8
72_ARTEK_AKFURNITURE_D2_CH_FOO
 10
0.012821
 20
-0.320151
 30
0
  0
VERTEX
  8
72_ARTEK_AKFURNITURE_D2_CH_FOO
 10
0.013912
 20
-0.319156
 30
0
  0
VERTEX
  8
72_ARTEK_AKFURNITURE_D2_CH_FOO
 10
0.0148017
 20
-0.317978
 30
0
  0
VERTEX
  8
72_ARTEK_AKFURNITURE_D2_CH_FOO
 10
0.0154598
 20
-0.316657
 30
0
  0
VERTEX
  8
72_ARTEK_AKFURNITURE_D2_CH_FOO
 10
0.0158638
 20
-0.315237
 30
0
  0
VERTEX
  8
72_ARTEK_AKFURNITURE_D2_CH_FOO
 10
0.016
 20
-0.313767
 30
0
  0
VERTEX
  8
72_ARTEK_AKFURNITURE_D2_CH_FOO
 10
0.016
 20
-0.298767
 30
0
  0
VERTEX
  8
72_ARTEK_AKFURNITURE_D2_CH_FOO
 10
0.016
 20
-0.298767
 30
0
  0
VERTEX
  8
72_ARTEK_AKFURNITURE_D2_CH_FOO
 10
0.0158638
 20
-0.297297
 30
0
  0
VERTEX
  8
72_ARTEK_AKFURNITURE_D2_CH_FOO
 10
0.0154598
 20
-0.295877
 30
0
  0
VERTEX
  8
72_ARTEK_AKFURNITURE_D2_CH_FOO
 10
0.0148017
 20
-0.294555
 30
0
  0
VERTEX
  8
72_ARTEK_AKFURNITURE_D2_CH_FOO
 10
0.0139121
 20
-0.293377
 30
0
  0
VERTEX
  8
72_ARTEK_AKFURNITURE_D2_CH_FOO
 10
0.0128211
 20
-0.292382
 30
0
  0
VERTEX
  8
72_ARTEK_AKFURNITURE_D2_CH_FOO
 10
0.0115659
 20
-0.291605
 30
0
  0
VERTEX
  8
72_ARTEK_AKFURNITURE_D2_CH_FOO
 10
0.0101893
 20
-0.291072
 30
0
  0
VERTEX
  8
72_ARTEK_AKFURNITURE_D2_CH_FOO
 10
0.00873815
 20
-0.290801
 30
0
  0
VERTEX
  8
72_ARTEK_AKFURNITURE_D2_CH_FOO
 10
0.00726185
 20
-0.290801
 30
0
  0
VERTEX
  8
72_ARTEK_AKFURNITURE_D2_CH_FOO
 10
0.00581069
 20
-0.291072
 30
0
  0
VERTEX
  8
72_ARTEK_AKFURNITURE_D2_CH_FOO
 10
0.00443409
 20
-0.291605
 30
0
  0
VERTEX
  8
72_ARTEK_AKFURNITURE_D2_CH_FOO
 10
0.00317892
 20
-0.292382
 30
0
  0
VERTEX
  8
72_ARTEK_AKFURNITURE_D2_CH_FOO
 10
0.00208793
 20
-0.293377
 30
0
  0
VERTEX
  8
72_ARTEK_AKFURNITURE_D2_CH_FOO
 10
0.00119827
 20
-0.294555
 30
0
  0
VERTEX
  8
72_ARTEK_AKFURNITURE_D2_CH_FOO
 10
0.000540231
 20
-0.295877
 30
0
  0
VERTEX
  8
72_ARTEK_AKFURNITURE_D2_CH_FOO
 10
0.000136232
 20
-0.297297
 30
0
  0
VERTEX
  8
72_ARTEK_AKFURNITURE_D2_CH_FOO
 10
2.67029e-008
 20
-0.298767
 30
0
  0
SEQEND
  0
POLYLINE
  8
72_ARTEK_AKFURNITURE_D2_CH_FOO
 66
     1
 70
     0
 10
0.0
 20
0.0
 30
0.0
  0
VERTEX
  8
72_ARTEK_AKFURNITURE_D2_CH_FOO
 10
0.02
 20
-0.315267
 30
0
  0
VERTEX
  8
72_ARTEK_AKFURNITURE_D2_CH_FOO
 10
0.02
 20
-0.297267
 30
0
  0
VERTEX
  8
72_ARTEK_AKFURNITURE_D2_CH_FOO
 10
0.016
 20
-0.297267
 30
0
  0
VERTEX
  8
72_ARTEK_AKFURNITURE_D2_CH_FOO
 10
0.016
 20
-0.315267
 30
0
  0
VERTEX
  8
72_ARTEK_AKFURNITURE_D2_CH_FOO
 10
0.02
 20
-0.315267
 30
0
  0
SEQEND
  0
POLYLINE
  8
72_ARTEK_AKFURNITURE_D2SNAP
 66
     1
 70
     0
 10
0.0
 20
0.0
 30
0.0
  0
VERTEX
  8
72_ARTEK_AKFURNITURE_D2SNAP
 10
0.5975
 20
-0
 30
0
  0
VERTEX
  8
72_ARTEK_AKFURNITURE_D2SNAP
 10
0.59726
 20
0.00243863
 30
0
  0
VERTEX
  8
72_ARTEK_AKFURNITURE_D2SNAP
 10
0.596548
 20
0.00478354
 30
0
  0
VERTEX
  8
72_ARTEK_AKFURNITURE_D2SNAP
 10
0.595393
 20
0.00694463
 30
0
  0
VERTEX
  8
72_ARTEK_AKFURNITURE_D2SNAP
 10
0.593839
 20
0.00883883
 30
0
  0
VERTEX
  8
72_ARTEK_AKFURNITURE_D2SNAP
 10
0.591945
 20
0.0103934
 30
0
  0
VERTEX
  8
72_ARTEK_AKFURNITURE_D2SNAP
 10
0.589784
 20
0.0115485
 30
0
  0
VERTEX
  8
72_ARTEK_AKFURNITURE_D2SNAP
 10
0.587439
 20
0.0122598
 30
0
  0
VERTEX
  8
72_ARTEK_AKFURNITURE_D2SNAP
 10
0.585
 20
0.0125
 30
0
  0
VERTEX
  8
72_ARTEK_AKFURNITURE_D2SNAP
 10
0.582561
 20
0.0122598
 30
0
  0
VERTEX
  8
72_ARTEK_AKFURNITURE_D2SNAP
 10
0.580216
 20
0.0115485
 30
0
  0
VERTEX
  8
72_ARTEK_AKFURNITURE_D2SNAP
 10
0.578055
 20
0.0103934
 30
0
  0
VERTEX
  8
72_ARTEK_AKFURNITURE_D2SNAP
 10
0.576161
 20
0.00883883
 30
0
  0
VERTEX
  8
72_ARTEK_AKFURNITURE_D2SNAP
 10
0.574607
 20
0.00694463
 30
0
  0
VERTEX
  8
72_ARTEK_AKFURNITURE_D2SNAP
 10
0.573452
 20
0.00478354
 30
0
  0
VERTEX
  8
72_ARTEK_AKFURNITURE_D2SNAP
 10
0.57274
 20
0.00243863
 30
0
  0
VERTEX
  8
72_ARTEK_AKFURNITURE_D2SNAP
 10
0.5725
 20
3.15316e-018
 30
0
  0
VERTEX
  8
72_ARTEK_AKFURNITURE_D2SNAP
 10
0.57274
 20
-0.00243863
 30
0
  0
VERTEX
  8
72_ARTEK_AKFURNITURE_D2SNAP
 10
0.573452
 20
-0.00478354
 30
0
  0
VERTEX
  8
72_ARTEK_AKFURNITURE_D2SNAP
 10
0.574607
 20
-0.00694463
 30
0
  0
VERTEX
  8
72_ARTEK_AKFURNITURE_D2SNAP
 10
0.576161
 20
-0.00883883
 30
0
  0
VERTEX
  8
72_ARTEK_AKFURNITURE_D2SNAP
 10
0.578055
 20
-0.0103934
 30
0
  0
VERTEX
  8
72_ARTEK_AKFURNITURE_D2SNAP
 10
0.580216
 20
-0.0115485
 30
0
  0
VERTEX
  8
72_ARTEK_AKFURNITURE_D2SNAP
 10
0.582561
 20
-0.0122598
 30
0
  0
VERTEX
  8
72_ARTEK_AKFURNITURE_D2SNAP
 10
0.585
 20
-0.0125
 30
0
  0
VERTEX
  8
72_ARTEK_AKFURNITURE_D2SNAP
 10
0.587439
 20
-0.0122598
 30
0
  0
VERTEX
  8
72_ARTEK_AKFURNITURE_D2SNAP
 10
0.589784
 20
-0.0115485
 30
0
  0
VERTEX
  8
72_ARTEK_AKFURNITURE_D2SNAP
 10
0.591945
 20
-0.0103934
 30
0
  0
VERTEX
  8
72_ARTEK_AKFURNITURE_D2SNAP
 10
0.593839
 20
-0.00883883
 30
0
  0
VERTEX
  8
72_ARTEK_AKFURNITURE_D2SNAP
 10
0.595393
 20
-0.00694463
 30
0
  0
VERTEX
  8
72_ARTEK_AKFURNITURE_D2SNAP
 10
0.596548
 20
-0.00478354
 30
0
  0
VERTEX
  8
72_ARTEK_AKFURNITURE_D2SNAP
 10
0.59726
 20
-0.00243863
 30
0
  0
VERTEX
  8
72_ARTEK_AKFURNITURE_D2SNAP
 10
0.5975
 20
-0
 30
0
  0
SEQEND
  0
POLYLINE
  8
72_ARTEK_AKFURNITURE_D2SNAP
 66
     1
 70
     0
 10
0.0
 20
0.0
 30
0.0
  0
VERTEX
  8
72_ARTEK_AKFURNITURE_D2SNAP
 10
0.567322
 20
-0.0176777
 30
0
  0
VERTEX
  8
72_ARTEK_AKFURNITURE_D2SNAP
 10
0.602678
 20
0.0176777
 30
0
  0
SEQEND
  0
POLYLINE
  8
72_ARTEK_AKFURNITURE_D2SNAP
 66
     1
 70
     0
 10
0.0
 20
0.0
 30
0.0
  0
VERTEX
  8
72_ARTEK_AKFURNITURE_D2SNAP
 10
0.567322
 20
0.0176777
 30
0
  0
VERTEX
  8
72_ARTEK_AKFURNITURE_D2SNAP
 10
0.602678
 20
-0.0176777
 30
0
  0
SEQEND
  0
POLYLINE
  8
72_ARTEK_AKFURNITURE_D2_CH_BAC
 66
     1
 70
     0
 10
0.0
 20
0.0
 30
0.0
  0
VERTEX
  8
72_ARTEK_AKFURNITURE_D2_CH_BAC
 10
0.582882
 20
0.141764
 30
0
  0
VERTEX
  8
72_ARTEK_AKFURNITURE_D2_CH_BAC
 10
0.585
 20
0.143694
 30
0
  0
VERTEX
  8
72_ARTEK_AKFURNITURE_D2_CH_BAC
 10
0.585
 20
0.147491
 30
0
  0
VERTEX
  8
72_ARTEK_AKFURNITURE_D2_CH_BAC
 10
0.585
 20
0.155085
 30
0
  0
VERTEX
  8
72_ARTEK_AKFURNITURE_D2_CH_BAC
 10
0.585
 20
0.170272
 30
0
  0
VERTEX
  8
72_ARTEK_AKFURNITURE_D2_CH_BAC
 10
0.585
 20
0.200646
 30
0
  0
VERTEX
  8
72_ARTEK_AKFURNITURE_D2_CH_BAC
 10
0.585
 20
0.231021
 30
0
  0
VERTEX
  8
72_ARTEK_AKFURNITURE_D2_CH_BAC
 10
0.585
 20
0.246208
 30
0
  0
VERTEX
  8
72_ARTEK_AKFURNITURE_D2_CH_BAC
 10
0.585
 20
0.248106
 30
0
  0
VERTEX
  8
72_ARTEK_AKFURNITURE_D2_CH_BAC
 10
0.58499
 20
0.249036
 30
0
  0
VERTEX
  8
72_ARTEK_AKFURNITURE_D2_CH_BAC
 10
0.584224
 20
0.248471
 30
0
  0
VERTEX
  8
72_ARTEK_AKFURNITURE_D2_CH_BAC
 10
0.580032
 20
0.24645
 30
0
  0
VERTEX
  8
72_ARTEK_AKFURNITURE_D2_CH_BAC
 10
0.572355
 20
0.244754
 30
0
  0
VERTEX
  8
72_ARTEK_AKFURNITURE_D2_CH_BAC
 10
0.567676
 20
0.244217
 30
0
  0
VERTEX
  8
72_ARTEK_AKFURNITURE_D2_CH_BAC
 10
0.564661
 20
0.244116
 30
0
  0
VERTEX
  8
72_ARTEK_AKFURNITURE_D2_CH_BAC
 10
0.557504
 20
0.244064
 30
0
  0
VERTEX
  8
72_ARTEK_AKFURNITURE_D2_CH_BAC
 10
0.546992
 20
0.24399
 30
0
  0
VERTEX
  8
72_ARTEK_AKFURNITURE_D2_CH_BAC
 10
0.533469
 20
0.243859
 30
0
  0
VERTEX
  8
72_ARTEK_AKFURNITURE_D2_CH_BAC
 10
0.516079
 20
0.243678
 30
0
  0
VERTEX
  8
72_ARTEK_AKFURNITURE_D2_CH_BAC
 10
0.505769
 20
0.243568
 30
0
  0
VERTEX
  8
72_ARTEK_AKFURNITURE_D2_CH_BAC
 10
0.49255
 20
0.243443
 30
0
  0
VERTEX
  8
72_ARTEK_AKFURNITURE_D2_CH_BAC
 10
0.475689
 20
0.243301
 30
0
  0
VERTEX
  8
72_ARTEK_AKFURNITURE_D2_CH_BAC
 10
0.455188
 20
0.243142
 30
0
  0
VERTEX
  8
72_ARTEK_AKFURNITURE_D2_CH_BAC
 10
0.408613
 20
0.242852
 30
0
  0
VERTEX
  8
72_ARTEK_AKFURNITURE_D2_CH_BAC
 10
0.361941
 20
0.242705
 30
0
  0
VERTEX
  8
72_ARTEK_AKFURNITURE_D2_CH_BAC
 10
0.340811
 20
0.24267
 30
0
  0
VERTEX
  8
72_ARTEK_AKFURNITURE_D2_CH_BAC
 10
0.322982
 20
0.242647
 30
0
  0
VERTEX
  8
72_ARTEK_AKFURNITURE_D2_CH_BAC
 10
0.308453
 20
0.242637
 30
0
  0
VERTEX
  8
72_ARTEK_AKFURNITURE_D2_CH_BAC
 10
0.295885
 20
0.242638
 30
0
  0
VERTEX
  8
72_ARTEK_AKFURNITURE_D2_CH_BAC
 10
0.28045
 20
0.242652
 30
0
  0
VERTEX
  8
72_ARTEK_AKFURNITURE_D2_CH_BAC
 10
0.261714
 20
0.242678
 30
0
  0
VERTEX
  8
72_ARTEK_AKFURNITURE_D2_CH_BAC
 10
0.239694
 20
0.242717
 30
0
  0
VERTEX
  8
72_ARTEK_AKFURNITURE_D2_CH_BAC
 10
0.216332
 20
0.242782
 30
0
  0
VERTEX
  8
72_ARTEK_AKFURNITURE_D2_CH_BAC
 10
0.169609
 20
0.243021
 30
0
  0
VERTEX
  8
72_ARTEK_AKFURNITURE_D2_CH_BAC
 10
0.146819
 20
0.243188
 30
0
  0
VERTEX
  8
72_ARTEK_AKFURNITURE_D2_CH_BAC
 10
0.127318
 20
0.243342
 30
0
  0
VERTEX
  8
72_ARTEK_AKFURNITURE_D2_CH_BAC
 10
0.111457
 20
0.243479
 30
0
  0
VERTEX
  8
72_ARTEK_AKFURNITURE_D2_CH_BAC
 10
0.099237
 20
0.2436
 30
0
  0
VERTEX
  8
72_ARTEK_AKFURNITURE_D2_CH_BAC
 10
0.0803663
 20
0.243799
 30
0
  0
VERTEX
  8
72_ARTEK_AKFURNITURE_D2_CH_BAC
 10
0.0655422
 20
0.243949
 30
0
  0
VERTEX
  8
72_ARTEK_AKFURNITURE_D2_CH_BAC
 10
0.0539714
 20
0.244044
 30
0
  0
VERTEX
  8
72_ARTEK_AKFURNITURE_D2_CH_BAC
 10
0.045459
 20
0.244092
 30
0
  0
VERTEX
  8
72_ARTEK_AKFURNITURE_D2_CH_BAC
 10
0.040941
 20
0.244175
 30
0
  0
VERTEX
  8
72_ARTEK_AKFURNITURE_D2_CH_BAC
 10
0.0395617
 20
0.244295
 30
0
  0
VERTEX
  8
72_ARTEK_AKFURNITURE_D2_CH_BAC
 10
0.037189
 20
0.244549
 30
0
  0
VERTEX
  8
72_ARTEK_AKFURNITURE_D2_CH_BAC
 10
0.0327641
 20
0.245199
 30
0
  0
VERTEX
  8
72_ARTEK_AKFURNITURE_D2_CH_BAC
 10
0.0262451
 20
0.247106
 30
0
  0
VERTEX
  8
72_ARTEK_AKFURNITURE_D2_CH_BAC
 10
0.0227691
 20
0.24922
 30
0
  0
VERTEX
  8
72_ARTEK_AKFURNITURE_D2_CH_BAC
 10
0.0208528
 20
0.251778
 30
0
  0
VERTEX
  8
72_ARTEK_AKFURNITURE_D2_CH_BAC
 10
0.02
 20
0.254712
 30
0
  0
VERTEX
  8
72_ARTEK_AKFURNITURE_D2_CH_BAC
 10
0.02
 20
0.246304
 30
0
  0
VERTEX
  8
72_ARTEK_AKFURNITURE_D2_CH_BAC
 10
0.02
 20
0.179043
 30
0
  0
VERTEX
  8
72_ARTEK_AKFURNITURE_D2_CH_BAC
 10
0.02
 20
0.162228
 30
0
  0
VERTEX
  8
72_ARTEK_AKFURNITURE_D2_CH_BAC
 10
0.02
 20
0.15382
 30
0
  0
VERTEX
  8
72_ARTEK_AKFURNITURE_D2_CH_BAC
 10
0.0202259
 20
0.149919
 30
0
  0
VERTEX
  8
72_ARTEK_AKFURNITURE_D2_CH_BAC
 10
0.0207235
 20
0.14739
 30
0
  0
VERTEX
  8
72_ARTEK_AKFURNITURE_D2_CH_BAC
 10
0.0217916
 20
0.144419
 30
0
  0
VERTEX
  8
72_ARTEK_AKFURNITURE_D2_CH_BAC
 10
0.0250941
 20
0.141775
 30
0
  0
VERTEX
  8
72_ARTEK_AKFURNITURE_D2_CH_BAC
 10
0.0287762
 20
0.14048
 30
0
  0
VERTEX
  8
72_ARTEK_AKFURNITURE_D2_CH_BAC
 10
0.0342827
 20
0.139421
 30
0
  0
VERTEX
  8
72_ARTEK_AKFURNITURE_D2_CH_BAC
 10
0.0426824
 20
0.138868
 30
0
  0
VERTEX
  8
72_ARTEK_AKFURNITURE_D2_CH_BAC
 10
0.0490616
 20
0.138856
 30
0
  0
VERTEX
  8
72_ARTEK_AKFURNITURE_D2_CH_BAC
 10
0.0612671
 20
0.138762
 30
0
  0
VERTEX
  8
72_ARTEK_AKFURNITURE_D2_CH_BAC
 10
0.065453
 20
0.138722
 30
0
  0
VERTEX
  8
72_ARTEK_AKFURNITURE_D2_CH_BAC
 10
0.0710353
 20
0.138661
 30
0
  0
VERTEX
  8
72_ARTEK_AKFURNITURE_D2_CH_BAC
 10
0.0842766
 20
0.138508
 30
0
  0
VERTEX
  8
72_ARTEK_AKFURNITURE_D2_CH_BAC
 10
0.0981282
 20
0.13835
 30
0
  0
VERTEX
  8
72_ARTEK_AKFURNITURE_D2_CH_BAC
 10
0.106008
 20
0.138264
 30
0
  0
VERTEX
  8
72_ARTEK_AKFURNITURE_D2_CH_BAC
 10
0.115447
 20
0.138166
 30
0
  0
VERTEX
  8
72_ARTEK_AKFURNITURE_D2_CH_BAC
 10
0.128222
 20
0.138042
 30
0
  0
VERTEX
  8
72_ARTEK_AKFURNITURE_D2_CH_BAC
 10
0.1442
 20
0.137896
 30
0
  0
VERTEX
  8
72_ARTEK_AKFURNITURE_D2_CH_BAC
 10
0.177674
 20
0.137643
 30
0
  0
VERTEX
  8
72_ARTEK_AKFURNITURE_D2_CH_BAC
 10
0.211148
 20
0.137474
 30
0
  0
VERTEX
  8
72_ARTEK_AKFURNITURE_D2_CH_BAC
 10
0.227588
 20
0.13742
 30
0
  0
VERTEX
  8
72_ARTEK_AKFURNITURE_D2_CH_BAC
 10
0.240876
 20
0.137383
 30
0
  0
VERTEX
  8
72_ARTEK_AKFURNITURE_D2_CH_BAC
 10
0.250294
 20
0.137363
 30
0
  0
VERTEX
  8
72_ARTEK_AKFURNITURE_D2_CH_BAC
 10
0.257896
 20
0.137354
 30
0
  0
VERTEX
  8
72_ARTEK_AKFURNITURE_D2_CH_BAC
 10
0.266444
 20
0.137348
 30
0
  0
VERTEX
  8
72_ARTEK_AKFURNITURE_D2_CH_BAC
 10
0.276153
 20
0.137346
 30
0
  0
VERTEX
  8
72_ARTEK_AKFURNITURE_D2_CH_BAC
 10
0.288478
 20
0.137344
 30
0
  0
VERTEX
  8
72_ARTEK_AKFURNITURE_D2_CH_BAC
 10
0.303711
 20
0.137344
 30
0
  0
VERTEX
  8
72_ARTEK_AKFURNITURE_D2_CH_BAC
 10
0.319044
 20
0.137344
 30
0
  0
VERTEX
  8
72_ARTEK_AKFURNITURE_D2_CH_BAC
 10
0.331469
 20
0.137346
 30
0
  0
VERTEX
  8
72_ARTEK_AKFURNITURE_D2_CH_BAC
 10
0.341243
 20
0.137348
 30
0
  0
VERTEX
  8
72_ARTEK_AKFURNITURE_D2_CH_BAC
 10
0.349825
 20
0.137353
 30
0
  0
VERTEX
  8
72_ARTEK_AKFURNITURE_D2_CH_BAC
 10
0.357449
 20
0.137363
 30
0
  0
VERTEX
  8
72_ARTEK_AKFURNITURE_D2_CH_BAC
 10
0.366734
 20
0.137383
 30
0
  0
VERTEX
  8
72_ARTEK_AKFURNITURE_D2_CH_BAC
 10
0.379888
 20
0.137419
 30
0
  0
VERTEX
  8
72_ARTEK_AKFURNITURE_D2_CH_BAC
 10
0.396274
 20
0.137472
 30
0
  0
VERTEX
  8
72_ARTEK_AKFURNITURE_D2_CH_BAC
 10
0.429748
 20
0.13764
 30
0
  0
VERTEX
  8
72_ARTEK_AKFURNITURE_D2_CH_BAC
 10
0.463222
 20
0.137891
 30
0
  0
VERTEX
  8
72_ARTEK_AKFURNITURE_D2_CH_BAC
 10
0.479276
 20
0.138038
 30
0
  0
VERTEX
  8
72_ARTEK_AKFURNITURE_D2_CH_BAC
 10
0.492167
 20
0.138162
 30
0
  0
VERTEX
  8
72_ARTEK_AKFURNITURE_D2_CH_BAC
 10
0.501707
 20
0.138261
 30
0
  0
VERTEX
  8
72_ARTEK_AKFURNITURE_D2_CH_BAC
 10
0.509611
 20
0.138347
 30
0
  0
VERTEX
  8
72_ARTEK_AKFURNITURE_D2_CH_BAC
 10
0.523494
 20
0.138505
 30
0
  0
VERTEX
  8
72_ARTEK_AKFURNITURE_D2_CH_BAC
 10
0.536747
 20
0.138658
 30
0
  0
VERTEX
  8
72_ARTEK_AKFURNITURE_D2_CH_BAC
 10
0.542377
 20
0.13872
 30
0
  0
VERTEX
  8
72_ARTEK_AKFURNITURE_D2_CH_BAC
 10
0.546611
 20
0.138761
 30
0
  0
VERTEX
  8
72_ARTEK_AKFURNITURE_D2_CH_BAC
 10
0.558859
 20
0.138856
 30
0
  0
VERTEX
  8
72_ARTEK_AKFURNITURE_D2_CH_BAC
 10
0.565261
 20
0.138867
 30
0
  0
VERTEX
  8
72_ARTEK_AKFURNITURE_D2_CH_BAC
 10
0.573657
 20
0.139414
 30
0
  0
VERTEX
  8
72_ARTEK_AKFURNITURE_D2_CH_BAC
 10
0.579184
 20
0.140469
 30
0
  0
VERTEX
  8
72_ARTEK_AKFURNITURE_D2_CH_BAC
 10
0.582882
 20
0.141764
 30
0
  0
SEQEND
  0
POLYLINE
  8
72_ARTEK_AKFURNITURE_D2_CH_BAC
 66
     1
 70
     0
 10
0.0
 20
0.0
 30
0.0
  0
VERTEX
  8
72_ARTEK_AKFURNITURE_D2_CH_BAC
 10
0.585324
 20
0.248796
 30
0
  0
VERTEX
  8
72_ARTEK_AKFURNITURE_D2_CH_BAC
 10
0.585
 20
0.189005
 30
0
  0
VERTEX
  8
72_ARTEK_AKFURNITURE_D2_CH_BAC
 10
0.585
 20
0.158782
 30
0
  0
VERTEX
  8
72_ARTEK_AKFURNITURE_D2_CH_BAC
 10
0.585
 20
0.14367
 30
0
  0
VERTEX
  8
72_ARTEK_AKFURNITURE_D2_CH_BAC
 10
0.587121
 20
0.141762
 30
0
  0
VERTEX
  8
72_ARTEK_AKFURNITURE_D2_CH_BAC
 10
0.589553
 20
0.140833
 30
0
  0
VERTEX
  8
72_ARTEK_AKFURNITURE_D2_CH_BAC
 10
0.597316
 20
0.139311
 30
0
  0
VERTEX
  8
72_ARTEK_AKFURNITURE_D2_CH_BAC
 10
0.603623
 20
0.138895
 30
0
  0
VERTEX
  8
72_ARTEK_AKFURNITURE_D2_CH_BAC
 10
0.608009
 20
0.138863
 30
0
  0
VERTEX
  8
72_ARTEK_AKFURNITURE_D2_CH_BAC
 10
0.610327
 20
0.138859
 30
0
  0
VERTEX
  8
72_ARTEK_AKFURNITURE_D2_CH_BAC
 10
0.613921
 20
0.138837
 30
0
  0
VERTEX
  8
72_ARTEK_AKFURNITURE_D2_CH_BAC
 10
0.622989
 20
0.138764
 30
0
  0
VERTEX
  8
72_ARTEK_AKFURNITURE_D2_CH_BAC
 10
0.629188
 20
0.138703
 30
0
  0
VERTEX
  8
72_ARTEK_AKFURNITURE_D2_CH_BAC
 10
0.63803
 20
0.138603
 30
0
  0
VERTEX
  8
72_ARTEK_AKFURNITURE_D2_CH_BAC
 10
0.657163
 20
0.138383
 30
0
  0
VERTEX
  8
72_ARTEK_AKFURNITURE_D2_CH_BAC
 10
0.668163
 20
0.138262
 30
0
  0
VERTEX
  8
72_ARTEK_AKFURNITURE_D2_CH_BAC
 10
0.674568
 20
0.138195
 30
0
  0
VERTEX
  8
72_ARTEK_AKFURNITURE_D2_CH_BAC
 10
0.682636
 20
0.138115
 30
0
  0
VERTEX
  8
72_ARTEK_AKFURNITURE_D2_CH_BAC
 10
0.692413
 20
0.138022
 30
0
  0
VERTEX
  8
72_ARTEK_AKFURNITURE_D2_CH_BAC
 10
0.703837
 20
0.137917
 30
0
  0
VERTEX
  8
72_ARTEK_AKFURNITURE_D2_CH_BAC
 10
0.727604
 20
0.137725
 30
0
  0
VERTEX
  8
72_ARTEK_AKFURNITURE_D2_CH_BAC
 10
0.775138
 20
0.137467
 30
0
  0
VERTEX
  8
72_ARTEK_AKFURNITURE_D2_CH_BAC
 10
0.786927
 20
0.137428
 30
0
  0
VERTEX
  8
72_ARTEK_AKFURNITURE_D2_CH_BAC
 10
0.79723
 20
0.137398
 30
0
  0
VERTEX
  8
72_ARTEK_AKFURNITURE_D2_CH_BAC
 10
0.805582
 20
0.137377
 30
0
  0
VERTEX
  8
72_ARTEK_AKFURNITURE_D2_CH_BAC
 10
0.811984
 20
0.137364
 30
0
  0
VERTEX
  8
72_ARTEK_AKFURNITURE_D2_CH_BAC
 10
0.823022
 20
0.137351
 30
0
  0
VERTEX
  8
72_ARTEK_AKFURNITURE_D2_CH_BAC
 10
0.836026
 20
0.137346
 30
0
  0
VERTEX
  8
72_ARTEK_AKFURNITURE_D2_CH_BAC
 10
0.844063
 20
0.137345
 30
0
  0
VERTEX
  8
72_ARTEK_AKFURNITURE_D2_CH_BAC
 10
0.853565
 20
0.137344
 30
0
  0
VERTEX
  8
72_ARTEK_AKFURNITURE_D2_CH_BAC
 10
0.875843
 20
0.137344
 30
0
  0
VERTEX
  8
72_ARTEK_AKFURNITURE_D2_CH_BAC
 10
0.88571
 20
0.137345
 30
0
  0
VERTEX
  8
72_ARTEK_AKFURNITURE_D2_CH_BAC
 10
0.894111
 20
0.137346
 30
0
  0
VERTEX
  8
72_ARTEK_AKFURNITURE_D2_CH_BAC
 10
0.907473
 20
0.13735
 30
0
  0
VERTEX
  8
72_ARTEK_AKFURNITURE_D2_CH_BAC
 10
0.918719
 20
0.137362
 30
0
  0
VERTEX
  8
72_ARTEK_AKFURNITURE_D2_CH_BAC
 10
0.924643
 20
0.137373
 30
0
  0
VERTEX
  8
72_ARTEK_AKFURNITURE_D2_CH_BAC
 10
0.93251
 20
0.137392
 30
0
  0
VERTEX
  8
72_ARTEK_AKFURNITURE_D2_CH_BAC
 10
0.942327
 20
0.13742
 30
0
  0
VERTEX
  8
72_ARTEK_AKFURNITURE_D2_CH_BAC
 10
0.953906
 20
0.137456
 30
0
  0
VERTEX
  8
72_ARTEK_AKFURNITURE_D2_CH_BAC
 10
0.977672
 20
0.137559
 30
0
  0
VERTEX
  8
72_ARTEK_AKFURNITURE_D2_CH_BAC
 10
1.02521
 20
0.13789
 30
0
  0
VERTEX
  8
72_ARTEK_AKFURNITURE_D2_CH_BAC
 10
1.03689
 20
0.137997
 30
0
  0
VERTEX
  8
72_ARTEK_AKFURNITURE_D2_CH_BAC
 10
1.04709
 20
0.138093
 30
0
  0
VERTEX
  8
72_ARTEK_AKFURNITURE_D2_CH_BAC
 10
1.05558
 20
0.138176
 30
0
  0
VERTEX
  8
72_ARTEK_AKFURNITURE_D2_CH_BAC
 10
1.06237
 20
0.138246
 30
0
  0
VERTEX
  8
72_ARTEK_AKFURNITURE_D2_CH_BAC
 10
1.07354
 20
0.138368
 30
0
  0
VERTEX
  8
72_ARTEK_AKFURNITURE_D2_CH_BAC
 10
1.08336
 20
0.13848
 30
0
  0
VERTEX
  8
72_ARTEK_AKFURNITURE_D2_CH_BAC
 10
1.10184
 20
0.138693
 30
0
  0
VERTEX
  8
72_ARTEK_AKFURNITURE_D2_CH_BAC
 10
1.10839
 20
0.138759
 30
0
  0
VERTEX
  8
72_ARTEK_AKFURNITURE_D2_CH_BAC
 10
1.113
 20
0.138796
 30
0
  0
VERTEX
  8
72_ARTEK_AKFURNITURE_D2_CH_BAC
 10
1.1213
 20
0.138858
 30
0
  0
VERTEX
  8
72_ARTEK_AKFURNITURE_D2_CH_BAC
 10
1.12582
 20
0.138863
 30
0
  0
VERTEX
  8
72_ARTEK_AKFURNITURE_D2_CH_BAC
 10
1.13681
 20
0.139565
 30
0
  0
VERTEX
  8
72_ARTEK_AKFURNITURE_D2_CH_BAC
 10
1.14363
 20
0.141233
 30
0
  0
VERTEX
  8
72_ARTEK_AKFURNITURE_D2_CH_BAC
 10
1.14823
 20
0.144449
 30
0
  0
VERTEX
  8
72_ARTEK_AKFURNITURE_D2_CH_BAC
 10
1.149
 20
0.146234
 30
0
  0
VERTEX
  8
72_ARTEK_AKFURNITURE_D2_CH_BAC
 10
1.14969
 20
0.149455
 30
0
  0
VERTEX
  8
72_ARTEK_AKFURNITURE_D2_CH_BAC
 10
1.15
 20
0.244502
 30
0
  0
VERTEX
  8
72_ARTEK_AKFURNITURE_D2_CH_BAC
 10
1.15
 20
0.250472
 30
0
  0
VERTEX
  8
72_ARTEK_AKFURNITURE_D2_CH_BAC
 10
1.15
 20
0.253456
 30
0
  0
VERTEX
  8
72_ARTEK_AKFURNITURE_D2_CH_BAC
 10
1.15
 20
0.254949
 30
0
  0
VERTEX
  8
72_ARTEK_AKFURNITURE_D2_CH_BAC
 10
1.15
 20
0.255605
 30
0
  0
VERTEX
  8
72_ARTEK_AKFURNITURE_D2_CH_BAC
 10
1.14994
 20
0.254911
 30
0
  0
VERTEX
  8
72_ARTEK_AKFURNITURE_D2_CH_BAC
 10
1.14925
 20
0.251971
 30
0
  0
VERTEX
  8
72_ARTEK_AKFURNITURE_D2_CH_BAC
 10
1.14816
 20
0.250138
 30
0
  0
VERTEX
  8
72_ARTEK_AKFURNITURE_D2_CH_BAC
 10
1.14356
 20
0.247016
 30
0
  0
VERTEX
  8
72_ARTEK_AKFURNITURE_D2_CH_BAC
 10
1.13915
 20
0.245628
 30
0
  0
VERTEX
  8
72_ARTEK_AKFURNITURE_D2_CH_BAC
 10
1.13313
 20
0.244588
 30
0
  0
VERTEX
  8
72_ARTEK_AKFURNITURE_D2_CH_BAC
 10
1.12976
 20
0.244226
 30
0
  0
VERTEX
  8
72_ARTEK_AKFURNITURE_D2_CH_BAC
 10
1.12823
 20
0.244147
 30
0
  0
VERTEX
  8
72_ARTEK_AKFURNITURE_D2_CH_BAC
 10
1.12463
 20
0.244093
 30
0
  0
VERTEX
  8
72_ARTEK_AKFURNITURE_D2_CH_BAC
 10
1.11897
 20
0.244061
 30
0
  0
VERTEX
  8
72_ARTEK_AKFURNITURE_D2_CH_BAC
 10
1.11169
 20
0.244013
 30
0
  0
VERTEX
  8
72_ARTEK_AKFURNITURE_D2_CH_BAC
 10
1.10293
 20
0.243935
 30
0
  0
VERTEX
  8
72_ARTEK_AKFURNITURE_D2_CH_BAC
 10
1.0925
 20
0.243829
 30
0
  0
VERTEX
  8
72_ARTEK_AKFURNITURE_D2_CH_BAC
 10
1.08003
 20
0.243698
 30
0
  0
VERTEX
  8
72_ARTEK_AKFURNITURE_D2_CH_BAC
 10
1.06521
 20
0.243543
 30
0
  0
VERTEX
  8
72_ARTEK_AKFURNITURE_D2_CH_BAC
 10
1.05564
 20
0.243453
 30
0
  0
VERTEX
  8
72_ARTEK_AKFURNITURE_D2_CH_BAC
 10
1.04423
 20
0.243355
 30
0
  0
VERTEX
  8
72_ARTEK_AKFURNITURE_D2_CH_BAC
 10
1.03099
 20
0.243248
 30
0
  0
VERTEX
  8
72_ARTEK_AKFURNITURE_D2_CH_BAC
 10
1.01591
 20
0.243133
 30
0
  0
VERTEX
  8
72_ARTEK_AKFURNITURE_D2_CH_BAC
 10
0.949659
 20
0.242768
 30
0
  0
VERTEX
  8
72_ARTEK_AKFURNITURE_D2_CH_BAC
 10
0.916886
 20
0.242692
 30
0
  0
VERTEX
  8
72_ARTEK_AKFURNITURE_D2_CH_BAC
 10
0.902287
 20
0.242669
 30
0
  0
VERTEX
  8
72_ARTEK_AKFURNITURE_D2_CH_BAC
 10
0.889351
 20
0.242652
 30
0
  0
VERTEX
  8
72_ARTEK_AKFURNITURE_D2_CH_BAC
 10
0.87808
 20
0.242641
 30
0
  0
VERTEX
  8
72_ARTEK_AKFURNITURE_D2_CH_BAC
 10
0.868472
 20
0.242636
 30
0
  0
VERTEX
  8
72_ARTEK_AKFURNITURE_D2_CH_BAC
 10
0.859689
 20
0.242637
 30
0
  0
VERTEX
  8
72_ARTEK_AKFURNITURE_D2_CH_BAC
 10
0.849382
 20
0.242645
 30
0
  0
VERTEX
  8
72_ARTEK_AKFURNITURE_D2_CH_BAC
 10
0.837411
 20
0.242658
 30
0
  0
VERTEX
  8
72_ARTEK_AKFURNITURE_D2_CH_BAC
 10
0.823775
 20
0.242678
 30
0
  0
VERTEX
  8
72_ARTEK_AKFURNITURE_D2_CH_BAC
 10
0.808476
 20
0.242704
 30
0
  0
VERTEX
  8
72_ARTEK_AKFURNITURE_D2_CH_BAC
 10
0.791951
 20
0.242739
 30
0
  0
VERTEX
  8
72_ARTEK_AKFURNITURE_D2_CH_BAC
 10
0.725604
 20
0.243063
 30
0
  0
VERTEX
  8
72_ARTEK_AKFURNITURE_D2_CH_BAC
 10
0.709524
 20
0.243182
 30
0
  0
VERTEX
  8
72_ARTEK_AKFURNITURE_D2_CH_BAC
 10
0.695217
 20
0.243294
 30
0
  0
VERTEX
  8
72_ARTEK_AKFURNITURE_D2_CH_BAC
 10
0.682747
 20
0.243397
 30
0
  0
VERTEX
  8
72_ARTEK_AKFURNITURE_D2_CH_BAC
 10
0.672111
 20
0.243492
 30
0
  0
VERTEX
  8
72_ARTEK_AKFURNITURE_D2_CH_BAC
 10
0.663312
 20
0.243578
 30
0
  0
VERTEX
  8
72_ARTEK_AKFURNITURE_D2_CH_BAC
 10
0.655967
 20
0.243656
 30
0
  0
VERTEX
  8
72_ARTEK_AKFURNITURE_D2_CH_BAC
 10
0.642898
 20
0.243793
 30
0
  0
VERTEX
  8
72_ARTEK_AKFURNITURE_D2_CH_BAC
 10
0.631885
 20
0.243906
 30
0
  0
VERTEX
  8
72_ARTEK_AKFURNITURE_D2_CH_BAC
 10
0.6227
 20
0.243993
 30
0
  0
VERTEX
  8
72_ARTEK_AKFURNITURE_D2_CH_BAC
 10
0.614989
 20
0.24405
 30
0
  0
VERTEX
  8
72_ARTEK_AKFURNITURE_D2_CH_BAC
 10
0.608799
 20
0.244082
 30
0
  0
VERTEX
  8
72_ARTEK_AKFURNITURE_D2_CH_BAC
 10
0.604596
 20
0.244129
 30
0
  0
VERTEX
  8
72_ARTEK_AKFURNITURE_D2_CH_BAC
 10
0.602494
 20
0.244201
 30
0
  0
VERTEX
  8
72_ARTEK_AKFURNITURE_D2_CH_BAC
 10
0.600787
 20
0.244375
 30
0
  0
VERTEX
  8
72_ARTEK_AKFURNITURE_D2_CH_BAC
 10
0.597504
 20
0.244773
 30
0
  0
VERTEX
  8
72_ARTEK_AKFURNITURE_D2_CH_BAC
 10
0.591719
 20
0.245904
 30
0
  0
VERTEX
  8
72_ARTEK_AKFURNITURE_D2_CH_BAC
 10
0.587784
 20
0.247315
 30
0
  0
VERTEX
  8
72_ARTEK_AKFURNITURE_D2_CH_BAC
 10
0.585324
 20
0.248796
 30
0
  0
SEQEND
  0
POLYLINE
  8
72_ARTEK_AKFURNITURE_D2_CH_BAC
 66
     1
 70
     0
 10
0.0
 20
0.0
 30
0.0
  0
VERTEX
  8
72_ARTEK_AKFURNITURE_D2_CH_BAC
 10
0.585317
 20
0.348517
 30
0
  0
VERTEX
  8
72_ARTEK_AKFURNITURE_D2_CH_BAC
 10
0.585
 20
0.292296
 30
0
  0
VERTEX
  8
72_ARTEK_AKFURNITURE_D2_CH_BAC
 10
0.585
 20
0.264108
 30
0
  0
VERTEX
  8
72_ARTEK_AKFURNITURE_D2_CH_BAC
 10
0.585
 20
0.250014
 30
0
  0
VERTEX
  8
72_ARTEK_AKFURNITURE_D2_CH_BAC
 10
0.585635
 20
0.248569
 30
0
  0
VERTEX
  8
72_ARTEK_AKFURNITURE_D2_CH_BAC
 10
0.587177
 20
0.247603
 30
0
  0
VERTEX
  8
72_ARTEK_AKFURNITURE_D2_CH_BAC
 10
0.592243
 20
0.245768
 30
0
  0
VERTEX
  8
72_ARTEK_AKFURNITURE_D2_CH_BAC
 10
0.600175
 20
0.244438
 30
0
  0
VERTEX
  8
72_ARTEK_AKFURNITURE_D2_CH_BAC
 10
0.602393
 20
0.24421
 30
0
  0
VERTEX
  8
72_ARTEK_AKFURNITURE_D2_CH_BAC
 10
0.60527
 20
0.244117
 30
0
  0
VERTEX
  8
72_ARTEK_AKFURNITURE_D2_CH_BAC
 10
0.611733
 20
0.244067
 30
0
  0
VERTEX
  8
72_ARTEK_AKFURNITURE_D2_CH_BAC
 10
0.62116
 20
0.244006
 30
0
  0
VERTEX
  8
72_ARTEK_AKFURNITURE_D2_CH_BAC
 10
0.633116
 20
0.243894
 30
0
  0
VERTEX
  8
72_ARTEK_AKFURNITURE_D2_CH_BAC
 10
0.64825
 20
0.243737
 30
0
  0
VERTEX
  8
72_ARTEK_AKFURNITURE_D2_CH_BAC
 10
0.657135
 20
0.243643
 30
0
  0
VERTEX
  8
72_ARTEK_AKFURNITURE_D2_CH_BAC
 10
0.667234
 20
0.243538
 30
0
  0
VERTEX
  8
72_ARTEK_AKFURNITURE_D2_CH_BAC
 10
0.680236
 20
0.243419
 30
0
  0
VERTEX
  8
72_ARTEK_AKFURNITURE_D2_CH_BAC
 10
0.696373
 20
0.243285
 30
0
  0
VERTEX
  8
72_ARTEK_AKFURNITURE_D2_CH_BAC
 10
0.715646
 20
0.243136
 30
0
  0
VERTEX
  8
72_ARTEK_AKFURNITURE_D2_CH_BAC
 10
0.737214
 20
0.242985
 30
0
  0
VERTEX
  8
72_ARTEK_AKFURNITURE_D2_CH_BAC
 10
0.780574
 20
0.242774
 30
0
  0
VERTEX
  8
72_ARTEK_AKFURNITURE_D2_CH_BAC
 10
0.802253
 20
0.242716
 30
0
  0
VERTEX
  8
72_ARTEK_AKFURNITURE_D2_CH_BAC
 10
0.822732
 20
0.24268
 30
0
  0
VERTEX
  8
72_ARTEK_AKFURNITURE_D2_CH_BAC
 10
0.840376
 20
0.242655
 30
0
  0
VERTEX
  8
72_ARTEK_AKFURNITURE_D2_CH_BAC
 10
0.855178
 20
0.24264
 30
0
  0
VERTEX
  8
72_ARTEK_AKFURNITURE_D2_CH_BAC
 10
0.879733
 20
0.242642
 30
0
  0
VERTEX
  8
72_ARTEK_AKFURNITURE_D2_CH_BAC
 10
0.895139
 20
0.242659
 30
0
  0
VERTEX
  8
72_ARTEK_AKFURNITURE_D2_CH_BAC
 10
0.913389
 20
0.242687
 30
0
  0
VERTEX
  8
72_ARTEK_AKFURNITURE_D2_CH_BAC
 10
0.956038
 20
0.24279
 30
0
  0
VERTEX
  8
72_ARTEK_AKFURNITURE_D2_CH_BAC
 10
0.999398
 20
0.243015
 30
0
  0
VERTEX
  8
72_ARTEK_AKFURNITURE_D2_CH_BAC
 10
1.02072
 20
0.243169
 30
0
  0
VERTEX
  8
72_ARTEK_AKFURNITURE_D2_CH_BAC
 10
1.03932
 20
0.243315
 30
0
  0
VERTEX
  8
72_ARTEK_AKFURNITURE_D2_CH_BAC
 10
1.05479
 20
0.243445
 30
0
  0
VERTEX
  8
72_ARTEK_AKFURNITURE_D2_CH_BAC
 10
1.06713
 20
0.243562
 30
0
  0
VERTEX
  8
72_ARTEK_AKFURNITURE_D2_CH_BAC
 10
1.08553
 20
0.243756
 30
0
  0
VERTEX
  8
72_ARTEK_AKFURNITURE_D2_CH_BAC
 10
1.10029
 20
0.243908
 30
0
  0
VERTEX
  8
72_ARTEK_AKFURNITURE_D2_CH_BAC
 10
1.11196
 20
0.244015
 30
0
  0
VERTEX
  8
72_ARTEK_AKFURNITURE_D2_CH_BAC
 10
1.12112
 20
0.244071
 30
0
  0
VERTEX
  8
72_ARTEK_AKFURNITURE_D2_CH_BAC
 10
1.12721
 20
0.244125
 30
0
  0
VERTEX
  8
72_ARTEK_AKFURNITURE_D2_CH_BAC
 10
1.12972
 20
0.244222
 30
0
  0
VERTEX
  8
72_ARTEK_AKFURNITURE_D2_CH_BAC
 10
1.13083
 20
0.244336
 30
0
  0
VERTEX
  8
72_ARTEK_AKFURNITURE_D2_CH_BAC
 10
1.13303
 20
0.244575
 30
0
  0
VERTEX
  8
72_ARTEK_AKFURNITURE_D2_CH_BAC
 10
1.13713
 20
0.245178
 30
0
  0
VERTEX
  8
72_ARTEK_AKFURNITURE_D2_CH_BAC
 10
1.14339
 20
0.246939
 30
0
  0
VERTEX
  8
72_ARTEK_AKFURNITURE_D2_CH_BAC
 10
1.14676
 20
0.248859
 30
0
  0
VERTEX
  8
72_ARTEK_AKFURNITURE_D2_CH_BAC
 10
1.14886
 20
0.251211
 30
0
  0
VERTEX
  8
72_ARTEK_AKFURNITURE_D2_CH_BAC
 10
1.14986
 20
0.254266
 30
0
  0
VERTEX
  8
72_ARTEK_AKFURNITURE_D2_CH_BAC
 10
1.15
 20
0.261863
 30
0
  0
VERTEX
  8
72_ARTEK_AKFURNITURE_D2_CH_BAC
 10
1.15
 20
0.324283
 30
0
  0
VERTEX
  8
72_ARTEK_AKFURNITURE_D2_CH_BAC
 10
1.15
 20
0.339888
 30
0
  0
VERTEX
  8
72_ARTEK_AKFURNITURE_D2_CH_BAC
 10
1.14972
 20
0.342238
 30
0
  0
VERTEX
  8
72_ARTEK_AKFURNITURE_D2_CH_BAC
 10
1.14919
 20
0.343411
 30
0
  0
VERTEX
  8
72_ARTEK_AKFURNITURE_D2_CH_BAC
 10
1.14892
 20
0.344908
 30
0
  0
VERTEX
  8
72_ARTEK_AKFURNITURE_D2_CH_BAC
 10
1.1486
 20
0.346564
 30
0
  0
VERTEX
  8
72_ARTEK_AKFURNITURE_D2_CH_BAC
 10
1.14638
 20
0.348744
 30
0
  0
VERTEX
  8
72_ARTEK_AKFURNITURE_D2_CH_BAC
 10
1.14304
 20
0.350575
 30
0
  0
VERTEX
  8
72_ARTEK_AKFURNITURE_D2_CH_BAC
 10
1.14021
 20
0.351503
 30
0
  0
VERTEX
  8
72_ARTEK_AKFURNITURE_D2_CH_BAC
 10
1.13503
 20
0.352582
 30
0
  0
VERTEX
  8
72_ARTEK_AKFURNITURE_D2_CH_BAC
 10
1.13098
 20
0.353102
 30
0
  0
VERTEX
  8
72_ARTEK_AKFURNITURE_D2_CH_BAC
 10
1.12555
 20
0.353367
 30
0
  0
VERTEX
  8
72_ARTEK_AKFURNITURE_D2_CH_BAC
 10
1.12174
 20
0.35337
 30
0
  0
VERTEX
  8
72_ARTEK_AKFURNITURE_D2_CH_BAC
 10
1.11492
 20
0.353417
 30
0
  0
VERTEX
  8
72_ARTEK_AKFURNITURE_D2_CH_BAC
 10
1.10674
 20
0.353485
 30
0
  0
VERTEX
  8
72_ARTEK_AKFURNITURE_D2_CH_BAC
 10
1.10056
 20
0.353549
 30
0
  0
VERTEX
  8
72_ARTEK_AKFURNITURE_D2_CH_BAC
 10
1.09179
 20
0.353649
 30
0
  0
VERTEX
  8
72_ARTEK_AKFURNITURE_D2_CH_BAC
 10
1.08565
 20
0.353717
 30
0
  0
VERTEX
  8
72_ARTEK_AKFURNITURE_D2_CH_BAC
 10
1.07824
 20
0.353799
 30
0
  0
VERTEX
  8
72_ARTEK_AKFURNITURE_D2_CH_BAC
 10
1.06023
 20
0.353994
 30
0
  0
VERTEX
  8
72_ARTEK_AKFURNITURE_D2_CH_BAC
 10
1.02044
 20
0.354371
 30
0
  0
VERTEX
  8
72_ARTEK_AKFURNITURE_D2_CH_BAC
 10
0.938617
 20
0.354815
 30
0
  0
VERTEX
  8
72_ARTEK_AKFURNITURE_D2_CH_BAC
 10
0.774961
 20
0.354759
 30
0
  0
VERTEX
  8
72_ARTEK_AKFURNITURE_D2_CH_BAC
 10
0.693205
 20
0.354207
 30
0
  0
VERTEX
  8
72_ARTEK_AKFURNITURE_D2_CH_BAC
 10
0.673653
 20
0.354014
 30
0
  0
VERTEX
  8
72_ARTEK_AKFURNITURE_D2_CH_BAC
 10
0.655388
 20
0.353817
 30
0
  0
VERTEX
  8
72_ARTEK_AKFURNITURE_D2_CH_BAC
 10
0.647726
 20
0.353732
 30
0
  0
VERTEX
  8
72_ARTEK_AKFURNITURE_D2_CH_BAC
 10
0.64133
 20
0.353661
 30
0
  0
VERTEX
  8
72_ARTEK_AKFURNITURE_D2_CH_BAC
 10
0.632174
 20
0.353558
 30
0
  0
VERTEX
  8
72_ARTEK_AKFURNITURE_D2_CH_BAC
 10
0.625779
 20
0.35349
 30
0
  0
VERTEX
  8
72_ARTEK_AKFURNITURE_D2_CH_BAC
 10
0.621371
 20
0.353452
 30
0
  0
VERTEX
  8
72_ARTEK_AKFURNITURE_D2_CH_BAC
 10
0.6136
 20
0.35339
 30
0
  0
VERTEX
  8
72_ARTEK_AKFURNITURE_D2_CH_BAC
 10
0.608433
 20
0.353367
 30
0
  0
VERTEX
  8
72_ARTEK_AKFURNITURE_D2_CH_BAC
 10
0.604846
 20
0.353365
 30
0
  0
VERTEX
  8
72_ARTEK_AKFURNITURE_D2_CH_BAC
 10
0.596085
 20
0.352453
 30
0
  0
VERTEX
  8
72_ARTEK_AKFURNITURE_D2_CH_BAC
 10
0.591017
 20
0.351274
 30
0
  0
VERTEX
  8
72_ARTEK_AKFURNITURE_D2_CH_BAC
 10
0.588497
 20
0.350374
 30
0
  0
VERTEX
  8
72_ARTEK_AKFURNITURE_D2_CH_BAC
 10
0.585317
 20
0.348517
 30
0
  0
SEQEND
  0
POLYLINE
  8
72_ARTEK_AKFURNITURE_D2_CH_BAC
 66
     1
 70
     0
 10
0.0
 20
0.0
 30
0.0
  0
VERTEX
  8
72_ARTEK_AKFURNITURE_D2_CH_BAC
 10
0.585
 20
0.249043
 30
0
  0
VERTEX
  8
72_ARTEK_AKFURNITURE_D2_CH_BAC
 10
0.585
 20
0.303899
 30
0
  0
VERTEX
  8
72_ARTEK_AKFURNITURE_D2_CH_BAC
 10
0.585
 20
0.331328
 30
0
  0
VERTEX
  8
72_ARTEK_AKFURNITURE_D2_CH_BAC
 10
0.585
 20
0.345042
 30
0
  0
VERTEX
  8
72_ARTEK_AKFURNITURE_D2_CH_BAC
 10
0.584842
 20
0.348393
 30
0
  0
VERTEX
  8
72_ARTEK_AKFURNITURE_D2_CH_BAC
 10
0.581646
 20
0.350307
 30
0
  0
VERTEX
  8
72_ARTEK_AKFURNITURE_D2_CH_BAC
 10
0.579128
 20
0.351226
 30
0
  0
VERTEX
  8
72_ARTEK_AKFURNITURE_D2_CH_BAC
 10
0.574045
 20
0.352432
 30
0
  0
VERTEX
  8
72_ARTEK_AKFURNITURE_D2_CH_BAC
 10
0.565056
 20
0.353366
 30
0
  0
VERTEX
  8
72_ARTEK_AKFURNITURE_D2_CH_BAC
 10
0.561383
 20
0.353367
 30
0
  0
VERTEX
  8
72_ARTEK_AKFURNITURE_D2_CH_BAC
 10
0.555857
 20
0.353394
 30
0
  0
VERTEX
  8
72_ARTEK_AKFURNITURE_D2_CH_BAC
 10
0.547879
 20
0.353458
 30
0
  0
VERTEX
  8
72_ARTEK_AKFURNITURE_D2_CH_BAC
 10
0.543026
 20
0.353502
 30
0
  0
VERTEX
  8
72_ARTEK_AKFURNITURE_D2_CH_BAC
 10
0.536005
 20
0.353578
 30
0
  0
VERTEX
  8
72_ARTEK_AKFURNITURE_D2_CH_BAC
 10
0.531414
 20
0.35363
 30
0
  0
VERTEX
  8
72_ARTEK_AKFURNITURE_D2_CH_BAC
 10
0.525512
 20
0.353696
 30
0
  0
VERTEX
  8
72_ARTEK_AKFURNITURE_D2_CH_BAC
 10
0.518287
 20
0.353777
 30
0
  0
VERTEX
  8
72_ARTEK_AKFURNITURE_D2_CH_BAC
 10
0.509738
 20
0.353871
 30
0
  0
VERTEX
  8
72_ARTEK_AKFURNITURE_D2_CH_BAC
 10
0.470186
 20
0.354268
 30
0
  0
VERTEX
  8
72_ARTEK_AKFURNITURE_D2_CH_BAC
 10
0.386524
 20
0.354788
 30
0
  0
VERTEX
  8
72_ARTEK_AKFURNITURE_D2_CH_BAC
 10
0.2192
 20
0.35478
 30
0
  0
VERTEX
  8
72_ARTEK_AKFURNITURE_D2_CH_BAC
 10
0.13555
 20
0.354247
 30
0
  0
VERTEX
  8
72_ARTEK_AKFURNITURE_D2_CH_BAC
 10
0.115343
 20
0.354052
 30
0
  0
VERTEX
  8
72_ARTEK_AKFURNITURE_D2_CH_BAC
 10
0.0962886
 20
0.353849
 30
0
  0
VERTEX
  8
72_ARTEK_AKFURNITURE_D2_CH_BAC
 10
0.0880284
 20
0.353758
 30
0
  0
VERTEX
  8
72_ARTEK_AKFURNITURE_D2_CH_BAC
 10
0.0810911
 20
0.353681
 30
0
  0
VERTEX
  8
72_ARTEK_AKFURNITURE_D2_CH_BAC
 10
0.0754768
 20
0.353618
 30
0
  0
VERTEX
  8
72_ARTEK_AKFURNITURE_D2_CH_BAC
 10
0.071125
 20
0.353568
 30
0
  0
VERTEX
  8
72_ARTEK_AKFURNITURE_D2_CH_BAC
 10
0.064342
 20
0.353496
 30
0
  0
VERTEX
  8
72_ARTEK_AKFURNITURE_D2_CH_BAC
 10
0.0596862
 20
0.353454
 30
0
  0
VERTEX
  8
72_ARTEK_AKFURNITURE_D2_CH_BAC
 10
0.0517305
 20
0.353391
 30
0
  0
VERTEX
  8
72_ARTEK_AKFURNITURE_D2_CH_BAC
 10
0.046417
 20
0.353367
 30
0
  0
VERTEX
  8
72_ARTEK_AKFURNITURE_D2_CH_BAC
 10
0.0427543
 20
0.353365
 30
0
  0
VERTEX
  8
72_ARTEK_AKFURNITURE_D2_CH_BAC
 10
0.0338322
 20
0.352411
 30
0
  0
VERTEX
  8
72_ARTEK_AKFURNITURE_D2_CH_BAC
 10
0.0287953
 20
0.351201
 30
0
  0
VERTEX
  8
72_ARTEK_AKFURNITURE_D2_CH_BAC
 10
0.026301
 20
0.350282
 30
0
  0
VERTEX
  8
72_ARTEK_AKFURNITURE_D2_CH_BAC
 10
0.0231217
 20
0.348364
 30
0
  0
VERTEX
  8
72_ARTEK_AKFURNITURE_D2_CH_BAC
 10
0.0212475
 20
0.346042
 30
0
  0
VERTEX
  8
72_ARTEK_AKFURNITURE_D2_CH_BAC
 10
0.0210805
 20
0.344462
 30
0
  0
VERTEX
  8
72_ARTEK_AKFURNITURE_D2_CH_BAC
 10
0.0202903
 20
0.342276
 30
0
  0
VERTEX
  8
72_ARTEK_AKFURNITURE_D2_CH_BAC
 10
0.02
 20
0.337907
 30
0
  0
VERTEX
  8
72_ARTEK_AKFURNITURE_D2_CH_BAC
 10
0.02
 20
0.32993
 30
0
  0
VERTEX
  8
72_ARTEK_AKFURNITURE_D2_CH_BAC
 10
0.02
 20
0.298021
 30
0
  0
VERTEX
  8
72_ARTEK_AKFURNITURE_D2_CH_BAC
 10
0.02
 20
0.266111
 30
0
  0
VERTEX
  8
72_ARTEK_AKFURNITURE_D2_CH_BAC
 10
0.02
 20
0.258134
 30
0
  0
VERTEX
  8
72_ARTEK_AKFURNITURE_D2_CH_BAC
 10
0.0201289
 20
0.254329
 30
0
  0
VERTEX
  8
72_ARTEK_AKFURNITURE_D2_CH_BAC
 10
0.0205816
 20
0.252367
 30
0
  0
VERTEX
  8
72_ARTEK_AKFURNITURE_D2_CH_BAC
 10
0.0220257
 20
0.249913
 30
0
  0
VERTEX
  8
72_ARTEK_AKFURNITURE_D2_CH_BAC
 10
0.0248621
 20
0.247779
 30
0
  0
VERTEX
  8
72_ARTEK_AKFURNITURE_D2_CH_BAC
 10
0.0297712
 20
0.24589
 30
0
  0
VERTEX
  8
72_ARTEK_AKFURNITURE_D2_CH_BAC
 10
0.0377515
 20
0.244483
 30
0
  0
VERTEX
  8
72_ARTEK_AKFURNITURE_D2_CH_BAC
 10
0.0400156
 20
0.244249
 30
0
  0
VERTEX
  8
72_ARTEK_AKFURNITURE_D2_CH_BAC
 10
0.0419655
 20
0.244142
 30
0
  0
VERTEX
  8
72_ARTEK_AKFURNITURE_D2_CH_BAC
 10
0.0474503
 20
0.244078
 30
0
  0
VERTEX
  8
72_ARTEK_AKFURNITURE_D2_CH_BAC
 10
0.0563326
 20
0.244028
 30
0
  0
VERTEX
  8
72_ARTEK_AKFURNITURE_D2_CH_BAC
 10
0.0678668
 20
0.243927
 30
0
  0
VERTEX
  8
72_ARTEK_AKFURNITURE_D2_CH_BAC
 10
0.082481
 20
0.243777
 30
0
  0
VERTEX
  8
72_ARTEK_AKFURNITURE_D2_CH_BAC
 10
0.100786
 20
0.243583
 30
0
  0
VERTEX
  8
72_ARTEK_AKFURNITURE_D2_CH_BAC
 10
0.112794
 20
0.243467
 30
0
  0
VERTEX
  8
72_ARTEK_AKFURNITURE_D2_CH_BAC
 10
0.128079
 20
0.243336
 30
0
  0
VERTEX
  8
72_ARTEK_AKFURNITURE_D2_CH_BAC
 10
0.146643
 20
0.243189
 30
0
  0
VERTEX
  8
72_ARTEK_AKFURNITURE_D2_CH_BAC
 10
0.16822
 20
0.243031
 30
0
  0
VERTEX
  8
72_ARTEK_AKFURNITURE_D2_CH_BAC
 10
0.256214
 20
0.242687
 30
0
  0
VERTEX
  8
72_ARTEK_AKFURNITURE_D2_CH_BAC
 10
0.274898
 20
0.242659
 30
0
  0
VERTEX
  8
72_ARTEK_AKFURNITURE_D2_CH_BAC
 10
0.290611
 20
0.242642
 30
0
  0
VERTEX
  8
72_ARTEK_AKFURNITURE_D2_CH_BAC
 10
0.315759
 20
0.242641
 30
0
  0
VERTEX
  8
72_ARTEK_AKFURNITURE_D2_CH_BAC
 10
0.331127
 20
0.242657
 30
0
  0
VERTEX
  8
72_ARTEK_AKFURNITURE_D2_CH_BAC
 10
0.349467
 20
0.242683
 30
0
  0
VERTEX
  8
72_ARTEK_AKFURNITURE_D2_CH_BAC
 10
0.370711
 20
0.242722
 30
0
  0
VERTEX
  8
72_ARTEK_AKFURNITURE_D2_CH_BAC
 10
0.392877
 20
0.242786
 30
0
  0
VERTEX
  8
72_ARTEK_AKFURNITURE_D2_CH_BAC
 10
0.437209
 20
0.243013
 30
0
  0
VERTEX
  8
72_ARTEK_AKFURNITURE_D2_CH_BAC
 10
0.458992
 20
0.243171
 30
0
  0
VERTEX
  8
72_ARTEK_AKFURNITURE_D2_CH_BAC
 10
0.477936
 20
0.24332
 30
0
  0
VERTEX
  8
72_ARTEK_AKFURNITURE_D2_CH_BAC
 10
0.493601
 20
0.243453
 30
0
  0
VERTEX
  8
72_ARTEK_AKFURNITURE_D2_CH_BAC
 10
0.505989
 20
0.243571
 30
0
  0
VERTEX
  8
72_ARTEK_AKFURNITURE_D2_CH_BAC
 10
0.524559
 20
0.243767
 30
0
  0
VERTEX
  8
72_ARTEK_AKFURNITURE_D2_CH_BAC
 10
0.539384
 20
0.243919
 30
0
  0
VERTEX
  8
72_ARTEK_AKFURNITURE_D2_CH_BAC
 10
0.55107
 20
0.244023
 30
0
  0
VERTEX
  8
72_ARTEK_AKFURNITURE_D2_CH_BAC
 10
0.560116
 20
0.244076
 30
0
  0
VERTEX
  8
72_ARTEK_AKFURNITURE_D2_CH_BAC
 10
0.565819
 20
0.244137
 30
0
  0
VERTEX
  8
72_ARTEK_AKFURNITURE_D2_CH_BAC
 10
0.567919
 20
0.244242
 30
0
  0
VERTEX
  8
72_ARTEK_AKFURNITURE_D2_CH_BAC
 10
0.569053
 20
0.244358
 30
0
  0
VERTEX
  8
72_ARTEK_AKFURNITURE_D2_CH_BAC
 10
0.571284
 20
0.244608
 30
0
  0
VERTEX
  8
72_ARTEK_AKFURNITURE_D2_CH_BAC
 10
0.575443
 20
0.245243
 30
0
  0
VERTEX
  8
72_ARTEK_AKFURNITURE_D2_CH_BAC
 10
0.581645
 20
0.247056
 30
0
  0
VERTEX
  8
72_ARTEK_AKFURNITURE_D2_CH_BAC
 10
0.585
 20
0.249043
 30
0
  0
SEQEND
  0
POLYLINE
  8
72_ARTEK_AKFURNITURE_D2SNAP
 66
     1
 70
     0
 10
0.0
 20
0.0
 30
0.0
  0
VERTEX
  8
72_ARTEK_AKFURNITURE_D2SNAP
 10
0.5975
 20
-0
 30
0
  0
VERTEX
  8
72_ARTEK_AKFURNITURE_D2SNAP
 10
0.59726
 20
0.00243863
 30
0
  0
VERTEX
  8
72_ARTEK_AKFURNITURE_D2SNAP
 10
0.596548
 20
0.00478354
 30
0
  0
VERTEX
  8
72_ARTEK_AKFURNITURE_D2SNAP
 10
0.595393
 20
0.00694463
 30
0
  0
VERTEX
  8
72_ARTEK_AKFURNITURE_D2SNAP
 10
0.593839
 20
0.00883883
 30
0
  0
VERTEX
  8
72_ARTEK_AKFURNITURE_D2SNAP
 10
0.591945
 20
0.0103934
 30
0
  0
VERTEX
  8
72_ARTEK_AKFURNITURE_D2SNAP
 10
0.589784
 20
0.0115485
 30
0
  0
VERTEX
  8
72_ARTEK_AKFURNITURE_D2SNAP
 10
0.587439
 20
0.0122598
 30
0
  0
VERTEX
  8
72_ARTEK_AKFURNITURE_D2SNAP
 10
0.585
 20
0.0125
 30
0
  0
VERTEX
  8
72_ARTEK_AKFURNITURE_D2SNAP
 10
0.582561
 20
0.0122598
 30
0
  0
VERTEX
  8
72_ARTEK_AKFURNITURE_D2SNAP
 10
0.580216
 20
0.0115485
 30
0
  0
VERTEX
  8
72_ARTEK_AKFURNITURE_D2SNAP
 10
0.578055
 20
0.0103934
 30
0
  0
VERTEX
  8
72_ARTEK_AKFURNITURE_D2SNAP
 10
0.576161
 20
0.00883883
 30
0
  0
VERTEX
  8
72_ARTEK_AKFURNITURE_D2SNAP
 10
0.574607
 20
0.00694463
 30
0
  0
VERTEX
  8
72_ARTEK_AKFURNITURE_D2SNAP
 10
0.573452
 20
0.00478354
 30
0
  0
VERTEX
  8
72_ARTEK_AKFURNITURE_D2SNAP
 10
0.57274
 20
0.00243863
 30
0
  0
VERTEX
  8
72_ARTEK_AKFURNITURE_D2SNAP
 10
0.5725
 20
3.15316e-018
 30
0
  0
VERTEX
  8
72_ARTEK_AKFURNITURE_D2SNAP
 10
0.57274
 20
-0.00243863
 30
0
  0
VERTEX
  8
72_ARTEK_AKFURNITURE_D2SNAP
 10
0.573452
 20
-0.00478354
 30
0
  0
VERTEX
  8
72_ARTEK_AKFURNITURE_D2SNAP
 10
0.574607
 20
-0.00694463
 30
0
  0
VERTEX
  8
72_ARTEK_AKFURNITURE_D2SNAP
 10
0.576161
 20
-0.00883883
 30
0
  0
VERTEX
  8
72_ARTEK_AKFURNITURE_D2SNAP
 10
0.578055
 20
-0.0103934
 30
0
  0
VERTEX
  8
72_ARTEK_AKFURNITURE_D2SNAP
 10
0.580216
 20
-0.0115485
 30
0
  0
VERTEX
  8
72_ARTEK_AKFURNITURE_D2SNAP
 10
0.582561
 20
-0.0122598
 30
0
  0
VERTEX
  8
72_ARTEK_AKFURNITURE_D2SNAP
 10
0.585
 20
-0.0125
 30
0
  0
VERTEX
  8
72_ARTEK_AKFURNITURE_D2SNAP
 10
0.587439
 20
-0.0122598
 30
0
  0
VERTEX
  8
72_ARTEK_AKFURNITURE_D2SNAP
 10
0.589784
 20
-0.0115485
 30
0
  0
VERTEX
  8
72_ARTEK_AKFURNITURE_D2SNAP
 10
0.591945
 20
-0.0103934
 30
0
  0
VERTEX
  8
72_ARTEK_AKFURNITURE_D2SNAP
 10
0.593839
 20
-0.00883883
 30
0
  0
VERTEX
  8
72_ARTEK_AKFURNITURE_D2SNAP
 10
0.595393
 20
-0.00694463
 30
0
  0
VERTEX
  8
72_ARTEK_AKFURNITURE_D2SNAP
 10
0.596548
 20
-0.00478354
 30
0
  0
VERTEX
  8
72_ARTEK_AKFURNITURE_D2SNAP
 10
0.59726
 20
-0.00243863
 30
0
  0
VERTEX
  8
72_ARTEK_AKFURNITURE_D2SNAP
 10
0.5975
 20
-0
 30
0
  0
SEQEND
  0
POLYLINE
  8
72_ARTEK_AKFURNITURE_D2SNAP
 66
     1
 70
     0
 10
0.0
 20
0.0
 30
0.0
  0
VERTEX
  8
72_ARTEK_AKFURNITURE_D2SNAP
 10
0.567322
 20
-0.0176777
 30
0
  0
VERTEX
  8
72_ARTEK_AKFURNITURE_D2SNAP
 10
0.602678
 20
0.0176777
 30
0
  0
SEQEND
  0
POLYLINE
  8
72_ARTEK_AKFURNITURE_D2SNAP
 66
     1
 70
     0
 10
0.0
 20
0.0
 30
0.0
  0
VERTEX
  8
72_ARTEK_AKFURNITURE_D2SNAP
 10
0.567322
 20
0.0176777
 30
0
  0
VERTEX
  8
72_ARTEK_AKFURNITURE_D2SNAP
 10
0.602678
 20
-0.0176777
 30
0
  0
SEQEND
  0
POLYLINE
  8
72_ARTEK_AKFURNITURE_D2_CH_SEA
 66
     1
 70
     0
 10
0.0
 20
0.0
 30
0.0
  0
VERTEX
  8
72_ARTEK_AKFURNITURE_D2_CH_SEA
 10
0.585
 20
-0.348269
 30
0
  0
VERTEX
  8
72_ARTEK_AKFURNITURE_D2_CH_SEA
 10
0.585
 20
0.0844373
 30
0
  0
VERTEX
  8
72_ARTEK_AKFURNITURE_D2_CH_SEA
 10
0.585
 20
0.138526
 30
0
  0
VERTEX
  8
72_ARTEK_AKFURNITURE_D2_CH_SEA
 10
0.585
 20
0.141906
 30
0
  0
VERTEX
  8
72_ARTEK_AKFURNITURE_D2_CH_SEA
 10
0.585
 20
0.142751
 30
0
  0
VERTEX
  8
72_ARTEK_AKFURNITURE_D2_CH_SEA
 10
0.584586
 20
0.142791
 30
0
  0
VERTEX
  8
72_ARTEK_AKFURNITURE_D2_CH_SEA
 10
0.583423
 20
0.142055
 30
0
  0
VERTEX
  8
72_ARTEK_AKFURNITURE_D2_CH_SEA
 10
0.578764
 20
0.140358
 30
0
  0
VERTEX
  8
72_ARTEK_AKFURNITURE_D2_CH_SEA
 10
0.575378
 20
0.139651
 30
0
  0
VERTEX
  8
72_ARTEK_AKFURNITURE_D2_CH_SEA
 10
0.570717
 20
0.139143
 30
0
  0
VERTEX
  8
72_ARTEK_AKFURNITURE_D2_CH_SEA
 10
0.565294
 20
0.138867
 30
0
  0
VERTEX
  8
72_ARTEK_AKFURNITURE_D2_CH_SEA
 10
0.561524
 20
0.138863
 30
0
  0
VERTEX
  8
72_ARTEK_AKFURNITURE_D2_CH_SEA
 10
0.556024
 20
0.138837
 30
0
  0
VERTEX
  8
72_ARTEK_AKFURNITURE_D2_CH_SEA
 10
0.547919
 20
0.138772
 30
0
  0
VERTEX
  8
72_ARTEK_AKFURNITURE_D2_CH_SEA
 10
0.542985
 20
0.138726
 30
0
  0
VERTEX
  8
72_ARTEK_AKFURNITURE_D2_CH_SEA
 10
0.535814
 20
0.138648
 30
0
  0
VERTEX
  8
72_ARTEK_AKFURNITURE_D2_CH_SEA
 10
0.518933
 20
0.138452
 30
0
  0
VERTEX
  8
72_ARTEK_AKFURNITURE_D2_CH_SEA
 10
0.509935
 20
0.13835
 30
0
  0
VERTEX
  8
72_ARTEK_AKFURNITURE_D2_CH_SEA
 10
0.499804
 20
0.13824
 30
0
  0
VERTEX
  8
72_ARTEK_AKFURNITURE_D2_CH_SEA
 10
0.493669
 20
0.138177
 30
0
  0
VERTEX
  8
72_ARTEK_AKFURNITURE_D2_CH_SEA
 10
0.486166
 20
0.138103
 30
0
  0
VERTEX
  8
72_ARTEK_AKFURNITURE_D2_CH_SEA
 10
0.477296
 20
0.138019
 30
0
  0
VERTEX
  8
72_ARTEK_AKFURNITURE_D2_CH_SEA
 10
0.467088
 20
0.137925
 30
0
  0
VERTEX
  8
72_ARTEK_AKFURNITURE_D2_CH_SEA
 10
0.38217
 20
0.137425
 30
0
  0
VERTEX
  8
72_ARTEK_AKFURNITURE_D2_CH_SEA
 10
0.373
 20
0.137399
 30
0
  0
VERTEX
  8
72_ARTEK_AKFURNITURE_D2_CH_SEA
 10
0.365391
 20
0.137379
 30
0
  0
VERTEX
  8
72_ARTEK_AKFURNITURE_D2_CH_SEA
 10
0.359345
 20
0.137366
 30
0
  0
VERTEX
  8
72_ARTEK_AKFURNITURE_D2_CH_SEA
 10
0.354566
 20
0.137359
 30
0
  0
VERTEX
  8
72_ARTEK_AKFURNITURE_D2_CH_SEA
 10
0.344238
 20
0.137349
 30
0
  0
VERTEX
  8
72_ARTEK_AKFURNITURE_D2_CH_SEA
 10
0.332185
 20
0.137346
 30
0
  0
VERTEX
  8
72_ARTEK_AKFURNITURE_D2_CH_SEA
 10
0.32475
 20
0.137345
 30
0
  0
VERTEX
  8
72_ARTEK_AKFURNITURE_D2_CH_SEA
 10
0.31614
 20
0.137344
 30
0
  0
VERTEX
  8
72_ARTEK_AKFURNITURE_D2_CH_SEA
 10
0.296106
 20
0.137344
 30
0
  0
VERTEX
  8
72_ARTEK_AKFURNITURE_D2_CH_SEA
 10
0.28697
 20
0.137345
 30
0
  0
VERTEX
  8
72_ARTEK_AKFURNITURE_D2_CH_SEA
 10
0.279007
 20
0.137345
 30
0
  0
VERTEX
  8
72_ARTEK_AKFURNITURE_D2_CH_SEA
 10
0.266293
 20
0.137348
 30
0
  0
VERTEX
  8
72_ARTEK_AKFURNITURE_D2_CH_SEA
 10
0.245516
 20
0.137372
 30
0
  0
VERTEX
  8
72_ARTEK_AKFURNITURE_D2_CH_SEA
 10
0.238609
 20
0.137389
 30
0
  0
VERTEX
  8
72_ARTEK_AKFURNITURE_D2_CH_SEA
 10
0.23014
 20
0.137413
 30
0
  0
VERTEX
  8
72_ARTEK_AKFURNITURE_D2_CH_SEA
 10
0.209486
 20
0.137481
 30
0
  0
VERTEX
  8
72_ARTEK_AKFURNITURE_D2_CH_SEA
 10
0.166952
 20
0.137715
 30
0
  0
VERTEX
  8
72_ARTEK_AKFURNITURE_D2_CH_SEA
 10
0.145685
 20
0.137883
 30
0
  0
VERTEX
  8
72_ARTEK_AKFURNITURE_D2_CH_SEA
 10
0.125646
 20
0.138067
 30
0
  0
VERTEX
  8
72_ARTEK_AKFURNITURE_D2_CH_SEA
 10
0.117529
 20
0.138145
 30
0
  0
VERTEX
  8
72_ARTEK_AKFURNITURE_D2_CH_SEA
 10
0.110781
 20
0.138213
 30
0
  0
VERTEX
  8
72_ARTEK_AKFURNITURE_D2_CH_SEA
 10
0.10024
 20
0.138326
 30
0
  0
VERTEX
  8
72_ARTEK_AKFURNITURE_D2_CH_SEA
 10
0.0825195
 20
0.138528
 30
0
  0
VERTEX
  8
72_ARTEK_AKFURNITURE_D2_CH_SEA
 10
0.0664281
 20
0.138712
 30
0
  0
VERTEX
  8
72_ARTEK_AKFURNITURE_D2_CH_SEA
 10
0.0610047
 20
0.138764
 30
0
  0
VERTEX
  8
72_ARTEK_AKFURNITURE_D2_CH_SEA
 10
0.0569313
 20
0.138797
 30
0
  0
VERTEX
  8
72_ARTEK_AKFURNITURE_D2_CH_SEA
 10
0.0493199
 20
0.138855
 30
0
  0
VERTEX
  8
72_ARTEK_AKFURNITURE_D2_CH_SEA
 10
0.0450251
 20
0.138863
 30
0
  0
VERTEX
  8
72_ARTEK_AKFURNITURE_D2_CH_SEA
 10
0.0408965
 20
0.138924
 30
0
  0
VERTEX
  8
72_ARTEK_AKFURNITURE_D2_CH_SEA
 10
0.0351778
 20
0.139324
 30
0
  0
VERTEX
  8
72_ARTEK_AKFURNITURE_D2_CH_SEA
 10
0.0281094
 20
0.140666
 30
0
  0
VERTEX
  8
72_ARTEK_AKFURNITURE_D2_CH_SEA
 10
0.0236991
 20
0.142601
 30
0
  0
VERTEX
  8
72_ARTEK_AKFURNITURE_D2_CH_SEA
 10
0.0216936
 20
0.144563
 30
0
  0
VERTEX
  8
72_ARTEK_AKFURNITURE_D2_CH_SEA
 10
0.0212266
 20
0.145499
 30
0
  0
VERTEX
  8
72_ARTEK_AKFURNITURE_D2_CH_SEA
 10
0.02074
 20
0.147307
 30
0
  0
VERTEX
  8
72_ARTEK_AKFURNITURE_D2_CH_SEA
 10
0.0201409
 20
0.150094
 30
0
  0
VERTEX
  8
72_ARTEK_AKFURNITURE_D2_CH_SEA
 10
0.0201375
 20
0.145815
 30
0
  0
VERTEX
  8
72_ARTEK_AKFURNITURE_D2_CH_SEA
 10
0.0201359
 20
0.138261
 30
0
  0
VERTEX
  8
72_ARTEK_AKFURNITURE_D2_CH_SEA
 10
0.0201359
 20
0.0221795
 30
0
  0
VERTEX
  8
72_ARTEK_AKFURNITURE_D2_CH_SEA
 10
0.0201359
 20
-0.209983
 30
0
  0
VERTEX
  8
72_ARTEK_AKFURNITURE_D2_CH_SEA
 10
0.0201359
 20
-0.326065
 30
0
  0
VERTEX
  8
72_ARTEK_AKFURNITURE_D2_CH_SEA
 10
0.0201359
 20
-0.33332
 30
0
  0
VERTEX
  8
72_ARTEK_AKFURNITURE_D2_CH_SEA
 10
0.0201294
 20
-0.339287
 30
0
  0
VERTEX
  8
72_ARTEK_AKFURNITURE_D2_CH_SEA
 10
0.0205729
 20
-0.343261
 30
0
  0
VERTEX
  8
72_ARTEK_AKFURNITURE_D2_CH_SEA
 10
0.0212639
 20
-0.346376
 30
0
  0
VERTEX
  8
72_ARTEK_AKFURNITURE_D2_CH_SEA
 10
0.0254751
 20
-0.349779
 30
0
  0
VERTEX
  8
72_ARTEK_AKFURNITURE_D2_CH_SEA
 10
0.0284373
 20
-0.3509
 30
0
  0
VERTEX
  8
72_ARTEK_AKFURNITURE_D2_CH_SEA
 10
0.0326727
 20
-0.35192
 30
0
  0
VERTEX
  8
72_ARTEK_AKFURNITURE_D2_CH_SEA
 10
0.0380912
 20
-0.352669
 30
0
  0
VERTEX
  8
72_ARTEK_AKFURNITURE_D2_CH_SEA
 10
0.0420919
 20
-0.353043
 30
0
  0
VERTEX
  8
72_ARTEK_AKFURNITURE_D2_CH_SEA
 10
0.0459947
 20
-0.353314
 30
0
  0
VERTEX
  8
72_ARTEK_AKFURNITURE_D2_CH_SEA
 10
0.048593
 20
-0.353442
 30
0
  0
VERTEX
  8
72_ARTEK_AKFURNITURE_D2_CH_SEA
 10
0.0532082
 20
-0.353547
 30
0
  0
VERTEX
  8
72_ARTEK_AKFURNITURE_D2_CH_SEA
 10
0.0598154
 20
-0.35365
 30
0
  0
VERTEX
  8
72_ARTEK_AKFURNITURE_D2_CH_SEA
 10
0.0677941
 20
-0.35374
 30
0
  0
VERTEX
  8
72_ARTEK_AKFURNITURE_D2_CH_SEA
 10
0.0759126
 20
-0.353778
 30
0
  0
VERTEX
  8
72_ARTEK_AKFURNITURE_D2_CH_SEA
 10
0.0859745
 20
-0.353807
 30
0
  0
VERTEX
  8
72_ARTEK_AKFURNITURE_D2_CH_SEA
 10
0.110773
 20
-0.35384
 30
0
  0
VERTEX
  8
72_ARTEK_AKFURNITURE_D2_CH_SEA
 10
0.117207
 20
-0.353842
 30
0
  0
VERTEX
  8
72_ARTEK_AKFURNITURE_D2_CH_SEA
 10
0.118816
 20
-0.353842
 30
0
  0
VERTEX
  8
72_ARTEK_AKFURNITURE_D2_CH_SEA
 10
0.12027
 20
-0.353843
 30
0
  0
VERTEX
  8
72_ARTEK_AKFURNITURE_D2_CH_SEA
 10
0.123065
 20
-0.353844
 30
0
  0
VERTEX
  8
72_ARTEK_AKFURNITURE_D2_CH_SEA
 10
0.127202
 20
-0.353846
 30
0
  0
VERTEX
  8
72_ARTEK_AKFURNITURE_D2_CH_SEA
 10
0.13268
 20
-0.353848
 30
0
  0
VERTEX
  8
72_ARTEK_AKFURNITURE_D2_CH_SEA
 10
0.146689
 20
-0.353855
 30
0
  0
VERTEX
  8
72_ARTEK_AKFURNITURE_D2_CH_SEA
 10
0.159056
 20
-0.353862
 30
0
  0
VERTEX
  8
72_ARTEK_AKFURNITURE_D2_CH_SEA
 10
0.16874
 20
-0.353869
 30
0
  0
VERTEX
  8
72_ARTEK_AKFURNITURE_D2_CH_SEA
 10
0.185376
 20
-0.353881
 30
0
  0
VERTEX
  8
72_ARTEK_AKFURNITURE_D2_CH_SEA
 10
0.218647
 20
-0.353907
 30
0
  0
VERTEX
  8
72_ARTEK_AKFURNITURE_D2_CH_SEA
 10
0.235682
 20
-0.353914
 30
0
  0
VERTEX
  8
72_ARTEK_AKFURNITURE_D2_CH_SEA
 10
0.247292
 20
-0.353917
 30
0
  0
VERTEX
  8
72_ARTEK_AKFURNITURE_D2_CH_SEA
 10
0.262228
 20
-0.353921
 30
0
  0
VERTEX
  8
72_ARTEK_AKFURNITURE_D2_CH_SEA
 10
0.328768
 20
-0.353924
 30
0
  0
VERTEX
  8
72_ARTEK_AKFURNITURE_D2_CH_SEA
 10
0.345403
 20
-0.353921
 30
0
  0
VERTEX
  8
72_ARTEK_AKFURNITURE_D2_CH_SEA
 10
0.360413
 20
-0.353918
 30
0
  0
VERTEX
  8
72_ARTEK_AKFURNITURE_D2_CH_SEA
 10
0.372097
 20
-0.353914
 30
0
  0
VERTEX
  8
72_ARTEK_AKFURNITURE_D2_CH_SEA
 10
0.38085
 20
-0.353911
 30
0
  0
VERTEX
  8
72_ARTEK_AKFURNITURE_D2_CH_SEA
 10
0.414122
 20
-0.353888
 30
0
  0
VERTEX
  8
72_ARTEK_AKFURNITURE_D2_CH_SEA
 10
0.430758
 20
-0.353875
 30
0
  0
VERTEX
  8
72_ARTEK_AKFURNITURE_D2_CH_SEA
 10
0.439075
 20
-0.353869
 30
0
  0
VERTEX
  8
72_ARTEK_AKFURNITURE_D2_CH_SEA
 10
0.4487
 20
-0.353862
 30
0
  0
VERTEX
  8
72_ARTEK_AKFURNITURE_D2_CH_SEA
 10
0.461007
 20
-0.353856
 30
0
  0
VERTEX
  8
72_ARTEK_AKFURNITURE_D2_CH_SEA
 10
0.475046
 20
-0.353848
 30
0
  0
VERTEX
  8
72_ARTEK_AKFURNITURE_D2_CH_SEA
 10
0.480584
 20
-0.353846
 30
0
  0
VERTEX
  8
72_ARTEK_AKFURNITURE_D2_CH_SEA
 10
0.48478
 20
-0.353844
 30
0
  0
VERTEX
  8
72_ARTEK_AKFURNITURE_D2_CH_SEA
 10
0.487635
 20
-0.353843
 30
0
  0
VERTEX
  8
72_ARTEK_AKFURNITURE_D2_CH_SEA
 10
0.489148
 20
-0.353842
 30
0
  0
VERTEX
  8
72_ARTEK_AKFURNITURE_D2_CH_SEA
 10
0.502015
 20
-0.353839
 30
0
  0
VERTEX
  8
72_ARTEK_AKFURNITURE_D2_CH_SEA
 10
0.526079
 20
-0.353795
 30
0
  0
VERTEX
  8
72_ARTEK_AKFURNITURE_D2_CH_SEA
 10
0.535171
 20
-0.353769
 30
0
  0
VERTEX
  8
72_ARTEK_AKFURNITURE_D2_CH_SEA
 10
0.543193
 20
-0.353712
 30
0
  0
VERTEX
  8
72_ARTEK_AKFURNITURE_D2_CH_SEA
 10
0.550873
 20
-0.353611
 30
0
  0
VERTEX
  8
72_ARTEK_AKFURNITURE_D2_CH_SEA
 10
0.55675
 20
-0.35351
 30
0
  0
VERTEX
  8
72_ARTEK_AKFURNITURE_D2_CH_SEA
 10
0.560596
 20
-0.353397
 30
0
  0
VERTEX
  8
72_ARTEK_AKFURNITURE_D2_CH_SEA
 10
0.562744
 20
-0.353264
 30
0
  0
VERTEX
  8
72_ARTEK_AKFURNITURE_D2_CH_SEA
 10
0.57098
 20
-0.352553
 30
0
  0
VERTEX
  8
72_ARTEK_AKFURNITURE_D2_CH_SEA
 10
0.576206
 20
-0.351748
 30
0
  0
VERTEX
  8
72_ARTEK_AKFURNITURE_D2_CH_SEA
 10
0.580209
 20
-0.350695
 30
0
  0
VERTEX
  8
72_ARTEK_AKFURNITURE_D2_CH_SEA
 10
0.585
 20
-0.348269
 30
0
  0
SEQEND
  0
POLYLINE
  8
72_ARTEK_AKFURNITURE_D2_CH_SEA
 66
     1
 70
     0
 10
0.0
 20
0.0
 30
0.0
  0
VERTEX
  8
72_ARTEK_AKFURNITURE_D2_CH_SEA
 10
0.587118
 20
0.141764
 30
0
  0
VERTEX
  8
72_ARTEK_AKFURNITURE_D2_CH_SEA
 10
0.585875
 20
0.142486
 30
0
  0
VERTEX
  8
72_ARTEK_AKFURNITURE_D2_CH_SEA
 10
0.585104
 20
0.143003
 30
0
  0
VERTEX
  8
72_ARTEK_AKFURNITURE_D2_CH_SEA
 10
0.585
 20
0.142186
 30
0
  0
VERTEX
  8
72_ARTEK_AKFURNITURE_D2_CH_SEA
 10
0.585
 20
0.138119
 30
0
  0
VERTEX
  8
72_ARTEK_AKFURNITURE_D2_CH_SEA
 10
0.585
 20
0.129986
 30
0
  0
VERTEX
  8
72_ARTEK_AKFURNITURE_D2_CH_SEA
 10
0.585
 20
0.113719
 30
0
  0
VERTEX
  8
72_ARTEK_AKFURNITURE_D2_CH_SEA
 10
0.585
 20
0.0811852
 30
0
  0
VERTEX
  8
72_ARTEK_AKFURNITURE_D2_CH_SEA
 10
0.585
 20
0.0161173
 30
0
  0
VERTEX
  8
72_ARTEK_AKFURNITURE_D2_CH_SEA
 10
0.585
 20
-0.114018
 30
0
  0
VERTEX
  8
72_ARTEK_AKFURNITURE_D2_CH_SEA
 10
0.585
 20
-0.244154
 30
0
  0
VERTEX
  8
72_ARTEK_AKFURNITURE_D2_CH_SEA
 10
0.585
 20
-0.309222
 30
0
  0
VERTEX
  8
72_ARTEK_AKFURNITURE_D2_CH_SEA
 10
0.585
 20
-0.341756
 30
0
  0
VERTEX
  8
72_ARTEK_AKFURNITURE_D2_CH_SEA
 10
0.585
 20
-0.345822
 30
0
  0
VERTEX
  8
72_ARTEK_AKFURNITURE_D2_CH_SEA
 10
0.585
 20
-0.347856
 30
0
  0
VERTEX
  8
72_ARTEK_AKFURNITURE_D2_CH_SEA
 10
0.586094
 20
-0.349029
 30
0
  0
VERTEX
  8
72_ARTEK_AKFURNITURE_D2_CH_SEA
 10
0.589472
 20
-0.350586
 30
0
  0
VERTEX
  8
72_ARTEK_AKFURNITURE_D2_CH_SEA
 10
0.595048
 20
-0.351988
 30
0
  0
VERTEX
  8
72_ARTEK_AKFURNITURE_D2_CH_SEA
 10
0.602137
 20
-0.352877
 30
0
  0
VERTEX
  8
72_ARTEK_AKFURNITURE_D2_CH_SEA
 10
0.607194
 20
-0.353259
 30
0
  0
VERTEX
  8
72_ARTEK_AKFURNITURE_D2_CH_SEA
 10
0.610441
 20
-0.353437
 30
0
  0
VERTEX
  8
72_ARTEK_AKFURNITURE_D2_CH_SEA
 10
0.617093
 20
-0.353579
 30
0
  0
VERTEX
  8
72_ARTEK_AKFURNITURE_D2_CH_SEA
 10
0.62721
 20
-0.353717
 30
0
  0
VERTEX
  8
72_ARTEK_AKFURNITURE_D2_CH_SEA
 10
0.638252
 20
-0.353779
 30
0
  0
VERTEX
  8
72_ARTEK_AKFURNITURE_D2_CH_SEA
 10
0.644879
 20
-0.353798
 30
0
  0
VERTEX
  8
72_ARTEK_AKFURNITURE_D2_CH_SEA
 10
0.652696
 20
-0.353819
 30
0
  0
VERTEX
  8
72_ARTEK_AKFURNITURE_D2_CH_SEA
 10
0.66968
 20
-0.35384
 30
0
  0
VERTEX
  8
72_ARTEK_AKFURNITURE_D2_CH_SEA
 10
0.678435
 20
-0.353842
 30
0
  0
VERTEX
  8
72_ARTEK_AKFURNITURE_D2_CH_SEA
 10
0.680624
 20
-0.353842
 30
0
  0
VERTEX
  8
72_ARTEK_AKFURNITURE_D2_CH_SEA
 10
0.682537
 20
-0.353843
 30
0
  0
VERTEX
  8
72_ARTEK_AKFURNITURE_D2_CH_SEA
 10
0.686891
 20
-0.353845
 30
0
  0
VERTEX
  8
72_ARTEK_AKFURNITURE_D2_CH_SEA
 10
0.693728
 20
-0.353848
 30
0
  0
VERTEX
  8
72_ARTEK_AKFURNITURE_D2_CH_SEA
 10
0.703013
 20
-0.353852
 30
0
  0
VERTEX
  8
72_ARTEK_AKFURNITURE_D2_CH_SEA
 10
0.712445
 20
-0.353857
 30
0
  0
VERTEX
  8
72_ARTEK_AKFURNITURE_D2_CH_SEA
 10
0.720636
 20
-0.353862
 30
0
  0
VERTEX
  8
72_ARTEK_AKFURNITURE_D2_CH_SEA
 10
0.733423
 20
-0.353871
 30
0
  0
VERTEX
  8
72_ARTEK_AKFURNITURE_D2_CH_SEA
 10
0.74474
 20
-0.353879
 30
0
  0
VERTEX
  8
72_ARTEK_AKFURNITURE_D2_CH_SEA
 10
0.767374
 20
-0.353897
 30
0
  0
VERTEX
  8
72_ARTEK_AKFURNITURE_D2_CH_SEA
 10
0.790008
 20
-0.353912
 30
0
  0
VERTEX
  8
72_ARTEK_AKFURNITURE_D2_CH_SEA
 10
0.795812
 20
-0.353914
 30
0
  0
VERTEX
  8
72_ARTEK_AKFURNITURE_D2_CH_SEA
 10
0.802908
 20
-0.353916
 30
0
  0
VERTEX
  8
72_ARTEK_AKFURNITURE_D2_CH_SEA
 10
0.811544
 20
-0.353918
 30
0
  0
VERTEX
  8
72_ARTEK_AKFURNITURE_D2_CH_SEA
 10
0.821719
 20
-0.35392
 30
0
  0
VERTEX
  8
72_ARTEK_AKFURNITURE_D2_CH_SEA
 10
0.912079
 20
-0.35392
 30
0
  0
VERTEX
  8
72_ARTEK_AKFURNITURE_D2_CH_SEA
 10
0.921998
 20
-0.353918
 30
0
  0
VERTEX
  8
72_ARTEK_AKFURNITURE_D2_CH_SEA
 10
0.930378
 20
-0.353915
 30
0
  0
VERTEX
  8
72_ARTEK_AKFURNITURE_D2_CH_SEA
 10
0.942933
 20
-0.353911
 30
0
  0
VERTEX
  8
72_ARTEK_AKFURNITURE_D2_CH_SEA
 10
0.965566
 20
-0.353896
 30
0
  0
VERTEX
  8
72_ARTEK_AKFURNITURE_D2_CH_SEA
 10
0.9882
 20
-0.353879
 30
0
  0
VERTEX
  8
72_ARTEK_AKFURNITURE_D2_CH_SEA
 10
0.999517
 20
-0.35387
 30
0
  0
VERTEX
  8
72_ARTEK_AKFURNITURE_D2_CH_SEA
 10
1.00548
 20
-0.353866
 30
0
  0
VERTEX
  8
72_ARTEK_AKFURNITURE_D2_CH_SEA
 10
1.01264
 20
-0.353861
 30
0
  0
VERTEX
  8
72_ARTEK_AKFURNITURE_D2_CH_SEA
 10
1.02104
 20
-0.353857
 30
0
  0
VERTEX
  8
72_ARTEK_AKFURNITURE_D2_CH_SEA
 10
1.03067
 20
-0.353852
 30
0
  0
VERTEX
  8
72_ARTEK_AKFURNITURE_D2_CH_SEA
 10
1.03958
 20
-0.353847
 30
0
  0
VERTEX
  8
72_ARTEK_AKFURNITURE_D2_CH_SEA
 10
1.04601
 20
-0.353844
 30
0
  0
VERTEX
  8
72_ARTEK_AKFURNITURE_D2_CH_SEA
 10
1.04995
 20
-0.353842
 30
0
  0
VERTEX
  8
72_ARTEK_AKFURNITURE_D2_CH_SEA
 10
1.05156
 20
-0.353842
 30
0
  0
VERTEX
  8
72_ARTEK_AKFURNITURE_D2_CH_SEA
 10
1.05375
 20
-0.353841
 30
0
  0
VERTEX
  8
72_ARTEK_AKFURNITURE_D2_CH_SEA
 10
1.07113
 20
-0.353834
 30
0
  0
VERTEX
  8
72_ARTEK_AKFURNITURE_D2_CH_SEA
 10
1.08727
 20
-0.353798
 30
0
  0
VERTEX
  8
72_ARTEK_AKFURNITURE_D2_CH_SEA
 10
1.09945
 20
-0.353759
 30
0
  0
VERTEX
  8
72_ARTEK_AKFURNITURE_D2_CH_SEA
 10
1.11031
 20
-0.353648
 30
0
  0
VERTEX
  8
72_ARTEK_AKFURNITURE_D2_CH_SEA
 10
1.11877
 20
-0.353509
 30
0
  0
VERTEX
  8
72_ARTEK_AKFURNITURE_D2_CH_SEA
 10
1.12348
 20
-0.353349
 30
0
  0
VERTEX
  8
72_ARTEK_AKFURNITURE_D2_CH_SEA
 10
1.12871
 20
-0.352979
 30
0
  0
VERTEX
  8
72_ARTEK_AKFURNITURE_D2_CH_SEA
 10
1.13524
 20
-0.352263
 30
0
  0
VERTEX
  8
72_ARTEK_AKFURNITURE_D2_CH_SEA
 10
1.14138
 20
-0.350954
 30
0
  0
VERTEX
  8
72_ARTEK_AKFURNITURE_D2_CH_SEA
 10
1.14522
 20
-0.349423
 30
0
  0
VERTEX
  8
72_ARTEK_AKFURNITURE_D2_CH_SEA
 10
1.1483
 20
-0.347121
 30
0
  0
VERTEX
  8
72_ARTEK_AKFURNITURE_D2_CH_SEA
 10
1.14894
 20
-0.344329
 30
0
  0
VERTEX
  8
72_ARTEK_AKFURNITURE_D2_CH_SEA
 10
1.14964
 20
-0.342708
 30
0
  0
VERTEX
  8
72_ARTEK_AKFURNITURE_D2_CH_SEA
 10
1.14987
 20
-0.339865
 30
0
  0
VERTEX
  8
72_ARTEK_AKFURNITURE_D2_CH_SEA
 10
1.14986
 20
-0.33635
 30
0
  0
VERTEX
  8
72_ARTEK_AKFURNITURE_D2_CH_SEA
 10
1.14986
 20
-0.331599
 30
0
  0
VERTEX
  8
72_ARTEK_AKFURNITURE_D2_CH_SEA
 10
1.14986
 20
-0.252631
 30
0
  0
VERTEX
  8
72_ARTEK_AKFURNITURE_D2_CH_SEA
 10
1.14986
 20
-0.0946955
 30
0
  0
VERTEX
  8
72_ARTEK_AKFURNITURE_D2_CH_SEA
 10
1.14986
 20
0.0632403
 30
0
  0
VERTEX
  8
72_ARTEK_AKFURNITURE_D2_CH_SEA
 10
1.14986
 20
0.142233
 30
0
  0
VERTEX
  8
72_ARTEK_AKFURNITURE_D2_CH_SEA
 10
1.14986
 20
0.14769
 30
0
  0
VERTEX
  8
72_ARTEK_AKFURNITURE_D2_CH_SEA
 10
1.14981
 20
0.150143
 30
0
  0
VERTEX
  8
72_ARTEK_AKFURNITURE_D2_CH_SEA
 10
1.14937
 20
0.147833
 30
0
  0
VERTEX
  8
72_ARTEK_AKFURNITURE_D2_CH_SEA
 10
1.1487
 20
0.145349
 30
0
  0
VERTEX
  8
72_ARTEK_AKFURNITURE_D2_CH_SEA
 10
1.14709
 20
0.143142
 30
0
  0
VERTEX
  8
72_ARTEK_AKFURNITURE_D2_CH_SEA
 10
1.14415
 20
0.141436
 30
0
  0
VERTEX
  8
72_ARTEK_AKFURNITURE_D2_CH_SEA
 10
1.14066
 20
0.140332
 30
0
  0
VERTEX
  8
72_ARTEK_AKFURNITURE_D2_CH_SEA
 10
1.13583
 20
0.139435
 30
0
  0
VERTEX
  8
72_ARTEK_AKFURNITURE_D2_CH_SEA
 10
1.12839
 20
0.138896
 30
0
  0
VERTEX
  8
72_ARTEK_AKFURNITURE_D2_CH_SEA
 10
1.12309
 20
0.138863
 30
0
  0
VERTEX
  8
72_ARTEK_AKFURNITURE_D2_CH_SEA
 10
1.11951
 20
0.138847
 30
0
  0
VERTEX
  8
72_ARTEK_AKFURNITURE_D2_CH_SEA
 10
1.11418
 20
0.138806
 30
0
  0
VERTEX
  8
72_ARTEK_AKFURNITURE_D2_CH_SEA
 10
1.10861
 20
0.138761
 30
0
  0
VERTEX
  8
72_ARTEK_AKFURNITURE_D2_CH_SEA
 10
1.10041
 20
0.138677
 30
0
  0
VERTEX
  8
72_ARTEK_AKFURNITURE_D2_CH_SEA
 10
1.07752
 20
0.138413
 30
0
  0
VERTEX
  8
72_ARTEK_AKFURNITURE_D2_CH_SEA
 10
1.0644
 20
0.138268
 30
0
  0
VERTEX
  8
72_ARTEK_AKFURNITURE_D2_CH_SEA
 10
1.05655
 20
0.138186
 30
0
  0
VERTEX
  8
72_ARTEK_AKFURNITURE_D2_CH_SEA
 10
1.04625
 20
0.138085
 30
0
  0
VERTEX
  8
72_ARTEK_AKFURNITURE_D2_CH_SEA
 10
1.03342
 20
0.137964
 30
0
  0
VERTEX
  8
72_ARTEK_AKFURNITURE_D2_CH_SEA
 10
1.01898
 20
0.137837
 30
0
  0
VERTEX
  8
72_ARTEK_AKFURNITURE_D2_CH_SEA
 10
0.990044
 20
0.137629
 30
0
  0
VERTEX
  8
72_ARTEK_AKFURNITURE_D2_CH_SEA
 10
0.961109
 20
0.137483
 30
0
  0
VERTEX
  8
72_ARTEK_AKFURNITURE_D2_CH_SEA
 10
0.94667
 20
0.137433
 30
0
  0
VERTEX
  8
72_ARTEK_AKFURNITURE_D2_CH_SEA
 10
0.934053
 20
0.137396
 30
0
  0
VERTEX
  8
72_ARTEK_AKFURNITURE_D2_CH_SEA
 10
0.924327
 20
0.137372
 30
0
  0
VERTEX
  8
72_ARTEK_AKFURNITURE_D2_CH_SEA
 10
0.917347
 20
0.13736
 30
0
  0
VERTEX
  8
72_ARTEK_AKFURNITURE_D2_CH_SEA
 10
0.903089
 20
0.137348
 30
0
  0
VERTEX
  8
72_ARTEK_AKFURNITURE_D2_CH_SEA
 10
0.89475
 20
0.137346
 30
0
  0
VERTEX
  8
72_ARTEK_AKFURNITURE_D2_CH_SEA
 10
0.884478
 20
0.137345
 30
0
  0
VERTEX
  8
72_ARTEK_AKFURNITURE_D2_CH_SEA
 10
0.872034
 20
0.137344
 30
0
  0
VERTEX
  8
72_ARTEK_AKFURNITURE_D2_CH_SEA
 10
0.85812
 20
0.137344
 30
0
  0
VERTEX
  8
72_ARTEK_AKFURNITURE_D2_CH_SEA
 10
0.845975
 20
0.137345
 30
0
  0
VERTEX
  8
72_ARTEK_AKFURNITURE_D2_CH_SEA
 10
0.836003
 20
0.137346
 30
0
  0
VERTEX
  8
72_ARTEK_AKFURNITURE_D2_CH_SEA
 10
0.820446
 20
0.137353
 30
0
  0
VERTEX
  8
72_ARTEK_AKFURNITURE_D2_CH_SEA
 10
0.806503
 20
0.137375
 30
0
  0
VERTEX
  8
72_ARTEK_AKFURNITURE_D2_CH_SEA
 10
0.796378
 20
0.137401
 30
0
  0
VERTEX
  8
72_ARTEK_AKFURNITURE_D2_CH_SEA
 10
0.783362
 20
0.137439
 30
0
  0
VERTEX
  8
72_ARTEK_AKFURNITURE_D2_CH_SEA
 10
0.725493
 20
0.13774
 30
0
  0
VERTEX
  8
72_ARTEK_AKFURNITURE_D2_CH_SEA
 10
0.69666
 20
0.137982
 30
0
  0
VERTEX
  8
72_ARTEK_AKFURNITURE_D2_CH_SEA
 10
0.684178
 20
0.1381
 30
0
  0
VERTEX
  8
72_ARTEK_AKFURNITURE_D2_CH_SEA
 10
0.674227
 20
0.138198
 30
0
  0
VERTEX
  8
72_ARTEK_AKFURNITURE_D2_CH_SEA
 10
0.659875
 20
0.138353
 30
0
  0
VERTEX
  8
72_ARTEK_AKFURNITURE_D2_CH_SEA
 10
0.647855
 20
0.138489
 30
0
  0
VERTEX
  8
72_ARTEK_AKFURNITURE_D2_CH_SEA
 10
0.636368
 20
0.138622
 30
0
  0
VERTEX
  8
72_ARTEK_AKFURNITURE_D2_CH_SEA
 10
0.626412
 20
0.138732
 30
0
  0
VERTEX
  8
72_ARTEK_AKFURNITURE_D2_CH_SEA
 10
0.614679
 20
0.138831
 30
0
  0
VERTEX
  8
72_ARTEK_AKFURNITURE_D2_CH_SEA
 10
0.610195
 20
0.13886
 30
0
  0
VERTEX
  8
72_ARTEK_AKFURNITURE_D2_CH_SEA
 10
0.607459
 20
0.138863
 30
0
  0
VERTEX
  8
72_ARTEK_AKFURNITURE_D2_CH_SEA
 10
0.601543
 20
0.138994
 30
0
  0
VERTEX
  8
72_ARTEK_AKFURNITURE_D2_CH_SEA
 10
0.594648
 20
0.139647
 30
0
  0
VERTEX
  8
72_ARTEK_AKFURNITURE_D2_CH_SEA
 10
0.590204
 20
0.140639
 30
0
  0
VERTEX
  8
72_ARTEK_AKFURNITURE_D2_CH_SEA
 10
0.587118
 20
0.141764
 30
0
  0
SEQEND
  0
POLYLINE
  8
72_ARTEK_AKFURNITURE_D2SNAP
 66
     1
 70
     0
 10
0.0
 20
0.0
 30
0.0
  0
VERTEX
  8
72_ARTEK_AKFURNITURE_D2SNAP
 10
0.5975
 20
-0
 30
0
  0
VERTEX
  8
72_ARTEK_AKFURNITURE_D2SNAP
 10
0.59726
 20
0.00243863
 30
0
  0
VERTEX
  8
72_ARTEK_AKFURNITURE_D2SNAP
 10
0.596548
 20
0.00478354
 30
0
  0
VERTEX
  8
72_ARTEK_AKFURNITURE_D2SNAP
 10
0.595393
 20
0.00694463
 30
0
  0
VERTEX
  8
72_ARTEK_AKFURNITURE_D2SNAP
 10
0.593839
 20
0.00883883
 30
0
  0
VERTEX
  8
72_ARTEK_AKFURNITURE_D2SNAP
 10
0.591945
 20
0.0103934
 30
0
  0
VERTEX
  8
72_ARTEK_AKFURNITURE_D2SNAP
 10
0.589784
 20
0.0115485
 30
0
  0
VERTEX
  8
72_ARTEK_AKFURNITURE_D2SNAP
 10
0.587439
 20
0.0122598
 30
0
  0
VERTEX
  8
72_ARTEK_AKFURNITURE_D2SNAP
 10
0.585
 20
0.0125
 30
0
  0
VERTEX
  8
72_ARTEK_AKFURNITURE_D2SNAP
 10
0.582561
 20
0.0122598
 30
0
  0
VERTEX
  8
72_ARTEK_AKFURNITURE_D2SNAP
 10
0.580216
 20
0.0115485
 30
0
  0
VERTEX
  8
72_ARTEK_AKFURNITURE_D2SNAP
 10
0.578055
 20
0.0103934
 30
0
  0
VERTEX
  8
72_ARTEK_AKFURNITURE_D2SNAP
 10
0.576161
 20
0.00883883
 30
0
  0
VERTEX
  8
72_ARTEK_AKFURNITURE_D2SNAP
 10
0.574607
 20
0.00694463
 30
0
  0
VERTEX
  8
72_ARTEK_AKFURNITURE_D2SNAP
 10
0.573452
 20
0.00478354
 30
0
  0
VERTEX
  8
72_ARTEK_AKFURNITURE_D2SNAP
 10
0.57274
 20
0.00243863
 30
0
  0
VERTEX
  8
72_ARTEK_AKFURNITURE_D2SNAP
 10
0.5725
 20
3.15316e-018
 30
0
  0
VERTEX
  8
72_ARTEK_AKFURNITURE_D2SNAP
 10
0.57274
 20
-0.00243863
 30
0
  0
VERTEX
  8
72_ARTEK_AKFURNITURE_D2SNAP
 10
0.573452
 20
-0.00478354
 30
0
  0
VERTEX
  8
72_ARTEK_AKFURNITURE_D2SNAP
 10
0.574607
 20
-0.00694463
 30
0
  0
VERTEX
  8
72_ARTEK_AKFURNITURE_D2SNAP
 10
0.576161
 20
-0.00883883
 30
0
  0
VERTEX
  8
72_ARTEK_AKFURNITURE_D2SNAP
 10
0.578055
 20
-0.0103934
 30
0
  0
VERTEX
  8
72_ARTEK_AKFURNITURE_D2SNAP
 10
0.580216
 20
-0.0115485
 30
0
  0
VERTEX
  8
72_ARTEK_AKFURNITURE_D2SNAP
 10
0.582561
 20
-0.0122598
 30
0
  0
VERTEX
  8
72_ARTEK_AKFURNITURE_D2SNAP
 10
0.585
 20
-0.0125
 30
0
  0
VERTEX
  8
72_ARTEK_AKFURNITURE_D2SNAP
 10
0.587439
 20
-0.0122598
 30
0
  0
VERTEX
  8
72_ARTEK_AKFURNITURE_D2SNAP
 10
0.589784
 20
-0.0115485
 30
0
  0
VERTEX
  8
72_ARTEK_AKFURNITURE_D2SNAP
 10
0.591945
 20
-0.0103934
 30
0
  0
VERTEX
  8
72_ARTEK_AKFURNITURE_D2SNAP
 10
0.593839
 20
-0.00883883
 30
0
  0
VERTEX
  8
72_ARTEK_AKFURNITURE_D2SNAP
 10
0.595393
 20
-0.00694463
 30
0
  0
VERTEX
  8
72_ARTEK_AKFURNITURE_D2SNAP
 10
0.596548
 20
-0.00478354
 30
0
  0
VERTEX
  8
72_ARTEK_AKFURNITURE_D2SNAP
 10
0.59726
 20
-0.00243863
 30
0
  0
VERTEX
  8
72_ARTEK_AKFURNITURE_D2SNAP
 10
0.5975
 20
-0
 30
0
  0
SEQEND
  0
POLYLINE
  8
72_ARTEK_AKFURNITURE_D2SNAP
 66
     1
 70
     0
 10
0.0
 20
0.0
 30
0.0
  0
VERTEX
  8
72_ARTEK_AKFURNITURE_D2SNAP
 10
0.567322
 20
-0.0176777
 30
0
  0
VERTEX
  8
72_ARTEK_AKFURNITURE_D2SNAP
 10
0.602678
 20
0.0176777
 30
0
  0
SEQEND
  0
POLYLINE
  8
72_ARTEK_AKFURNITURE_D2SNAP
 66
     1
 70
     0
 10
0.0
 20
0.0
 30
0.0
  0
VERTEX
  8
72_ARTEK_AKFURNITURE_D2SNAP
 10
0.567322
 20
0.0176777
 30
0
  0
VERTEX
  8
72_ARTEK_AKFURNITURE_D2SNAP
 10
0.602678
 20
-0.0176777
 30
0
  0
SEQEND
  0
POLYLINE
  8
72_ARTEK_AKFURNITURE_D2_CH_BAC
 66
     1
 70
     0
 10
0.0
 20
0.0
 30
0.0
  0
VERTEX
  8
72_ARTEK_AKFURNITURE_D2_CH_BAC
 10
0.582882
 20
0.141764
 30
0
  0
VERTEX
  8
72_ARTEK_AKFURNITURE_D2_CH_BAC
 10
0.585
 20
0.143694
 30
0
  0
VERTEX
  8
72_ARTEK_AKFURNITURE_D2_CH_BAC
 10
0.585
 20
0.147491
 30
0
  0
VERTEX
  8
72_ARTEK_AKFURNITURE_D2_CH_BAC
 10
0.585
 20
0.155085
 30
0
  0
VERTEX
  8
72_ARTEK_AKFURNITURE_D2_CH_BAC
 10
0.585
 20
0.170272
 30
0
  0
VERTEX
  8
72_ARTEK_AKFURNITURE_D2_CH_BAC
 10
0.585
 20
0.200646
 30
0
  0
VERTEX
  8
72_ARTEK_AKFURNITURE_D2_CH_BAC
 10
0.585
 20
0.231021
 30
0
  0
VERTEX
  8
72_ARTEK_AKFURNITURE_D2_CH_BAC
 10
0.585
 20
0.246208
 30
0
  0
VERTEX
  8
72_ARTEK_AKFURNITURE_D2_CH_BAC
 10
0.585
 20
0.248106
 30
0
  0
VERTEX
  8
72_ARTEK_AKFURNITURE_D2_CH_BAC
 10
0.58499
 20
0.249036
 30
0
  0
VERTEX
  8
72_ARTEK_AKFURNITURE_D2_CH_BAC
 10
0.584224
 20
0.248471
 30
0
  0
VERTEX
  8
72_ARTEK_AKFURNITURE_D2_CH_BAC
 10
0.580032
 20
0.24645
 30
0
  0
VERTEX
  8
72_ARTEK_AKFURNITURE_D2_CH_BAC
 10
0.572355
 20
0.244754
 30
0
  0
VERTEX
  8
72_ARTEK_AKFURNITURE_D2_CH_BAC
 10
0.567676
 20
0.244217
 30
0
  0
VERTEX
  8
72_ARTEK_AKFURNITURE_D2_CH_BAC
 10
0.564661
 20
0.244116
 30
0
  0
VERTEX
  8
72_ARTEK_AKFURNITURE_D2_CH_BAC
 10
0.557504
 20
0.244064
 30
0
  0
VERTEX
  8
72_ARTEK_AKFURNITURE_D2_CH_BAC
 10
0.546992
 20
0.24399
 30
0
  0
VERTEX
  8
72_ARTEK_AKFURNITURE_D2_CH_BAC
 10
0.533469
 20
0.243859
 30
0
  0
VERTEX
  8
72_ARTEK_AKFURNITURE_D2_CH_BAC
 10
0.516079
 20
0.243678
 30
0
  0
VERTEX
  8
72_ARTEK_AKFURNITURE_D2_CH_BAC
 10
0.505769
 20
0.243568
 30
0
  0
VERTEX
  8
72_ARTEK_AKFURNITURE_D2_CH_BAC
 10
0.49255
 20
0.243443
 30
0
  0
VERTEX
  8
72_ARTEK_AKFURNITURE_D2_CH_BAC
 10
0.475689
 20
0.243301
 30
0
  0
VERTEX
  8
72_ARTEK_AKFURNITURE_D2_CH_BAC
 10
0.455188
 20
0.243142
 30
0
  0
VERTEX
  8
72_ARTEK_AKFURNITURE_D2_CH_BAC
 10
0.408613
 20
0.242852
 30
0
  0
VERTEX
  8
72_ARTEK_AKFURNITURE_D2_CH_BAC
 10
0.361941
 20
0.242705
 30
0
  0
VERTEX
  8
72_ARTEK_AKFURNITURE_D2_CH_BAC
 10
0.340811
 20
0.24267
 30
0
  0
VERTEX
  8
72_ARTEK_AKFURNITURE_D2_CH_BAC
 10
0.322982
 20
0.242647
 30
0
  0
VERTEX
  8
72_ARTEK_AKFURNITURE_D2_CH_BAC
 10
0.308453
 20
0.242637
 30
0
  0
VERTEX
  8
72_ARTEK_AKFURNITURE_D2_CH_BAC
 10
0.295885
 20
0.242638
 30
0
  0
VERTEX
  8
72_ARTEK_AKFURNITURE_D2_CH_BAC
 10
0.28045
 20
0.242652
 30
0
  0
VERTEX
  8
72_ARTEK_AKFURNITURE_D2_CH_BAC
 10
0.261714
 20
0.242678
 30
0
  0
VERTEX
  8
72_ARTEK_AKFURNITURE_D2_CH_BAC
 10
0.239694
 20
0.242717
 30
0
  0
VERTEX
  8
72_ARTEK_AKFURNITURE_D2_CH_BAC
 10
0.216332
 20
0.242782
 30
0
  0
VERTEX
  8
72_ARTEK_AKFURNITURE_D2_CH_BAC
 10
0.169609
 20
0.243021
 30
0
  0
VERTEX
  8
72_ARTEK_AKFURNITURE_D2_CH_BAC
 10
0.146819
 20
0.243188
 30
0
  0
VERTEX
  8
72_ARTEK_AKFURNITURE_D2_CH_BAC
 10
0.127318
 20
0.243342
 30
0
  0
VERTEX
  8
72_ARTEK_AKFURNITURE_D2_CH_BAC
 10
0.111457
 20
0.243479
 30
0
  0
VERTEX
  8
72_ARTEK_AKFURNITURE_D2_CH_BAC
 10
0.099237
 20
0.2436
 30
0
  0
VERTEX
  8
72_ARTEK_AKFURNITURE_D2_CH_BAC
 10
0.0803663
 20
0.243799
 30
0
  0
VERTEX
  8
72_ARTEK_AKFURNITURE_D2_CH_BAC
 10
0.0655422
 20
0.243949
 30
0
  0
VERTEX
  8
72_ARTEK_AKFURNITURE_D2_CH_BAC
 10
0.0539714
 20
0.244044
 30
0
  0
VERTEX
  8
72_ARTEK_AKFURNITURE_D2_CH_BAC
 10
0.045459
 20
0.244092
 30
0
  0
VERTEX
  8
72_ARTEK_AKFURNITURE_D2_CH_BAC
 10
0.040941
 20
0.244175
 30
0
  0
VERTEX
  8
72_ARTEK_AKFURNITURE_D2_CH_BAC
 10
0.0395617
 20
0.244295
 30
0
  0
VERTEX
  8
72_ARTEK_AKFURNITURE_D2_CH_BAC
 10
0.037189
 20
0.244549
 30
0
  0
VERTEX
  8
72_ARTEK_AKFURNITURE_D2_CH_BAC
 10
0.0327641
 20
0.245199
 30
0
  0
VERTEX
  8
72_ARTEK_AKFURNITURE_D2_CH_BAC
 10
0.0262451
 20
0.247106
 30
0
  0
VERTEX
  8
72_ARTEK_AKFURNITURE_D2_CH_BAC
 10
0.0227691
 20
0.24922
 30
0
  0
VERTEX
  8
72_ARTEK_AKFURNITURE_D2_CH_BAC
 10
0.0208528
 20
0.251778
 30
0
  0
VERTEX
  8
72_ARTEK_AKFURNITURE_D2_CH_BAC
 10
0.02
 20
0.254712
 30
0
  0
VERTEX
  8
72_ARTEK_AKFURNITURE_D2_CH_BAC
 10
0.02
 20
0.246304
 30
0
  0
VERTEX
  8
72_ARTEK_AKFURNITURE_D2_CH_BAC
 10
0.02
 20
0.179043
 30
0
  0
VERTEX
  8
72_ARTEK_AKFURNITURE_D2_CH_BAC
 10
0.02
 20
0.162228
 30
0
  0
VERTEX
  8
72_ARTEK_AKFURNITURE_D2_CH_BAC
 10
0.02
 20
0.15382
 30
0
  0
VERTEX
  8
72_ARTEK_AKFURNITURE_D2_CH_BAC
 10
0.0202259
 20
0.149919
 30
0
  0
VERTEX
  8
72_ARTEK_AKFURNITURE_D2_CH_BAC
 10
0.0207235
 20
0.14739
 30
0
  0
VERTEX
  8
72_ARTEK_AKFURNITURE_D2_CH_BAC
 10
0.0217916
 20
0.144419
 30
0
  0
VERTEX
  8
72_ARTEK_AKFURNITURE_D2_CH_BAC
 10
0.0250941
 20
0.141775
 30
0
  0
VERTEX
  8
72_ARTEK_AKFURNITURE_D2_CH_BAC
 10
0.0287762
 20
0.14048
 30
0
  0
VERTEX
  8
72_ARTEK_AKFURNITURE_D2_CH_BAC
 10
0.0342827
 20
0.139421
 30
0
  0
VERTEX
  8
72_ARTEK_AKFURNITURE_D2_CH_BAC
 10
0.0426824
 20
0.138868
 30
0
  0
VERTEX
  8
72_ARTEK_AKFURNITURE_D2_CH_BAC
 10
0.0490616
 20
0.138856
 30
0
  0
VERTEX
  8
72_ARTEK_AKFURNITURE_D2_CH_BAC
 10
0.0612671
 20
0.138762
 30
0
  0
VERTEX
  8
72_ARTEK_AKFURNITURE_D2_CH_BAC
 10
0.065453
 20
0.138722
 30
0
  0
VERTEX
  8
72_ARTEK_AKFURNITURE_D2_CH_BAC
 10
0.0710353
 20
0.138661
 30
0
  0
VERTEX
  8
72_ARTEK_AKFURNITURE_D2_CH_BAC
 10
0.0842766
 20
0.138508
 30
0
  0
VERTEX
  8
72_ARTEK_AKFURNITURE_D2_CH_BAC
 10
0.0981282
 20
0.13835
 30
0
  0
VERTEX
  8
72_ARTEK_AKFURNITURE_D2_CH_BAC
 10
0.106008
 20
0.138264
 30
0
  0
VERTEX
  8
72_ARTEK_AKFURNITURE_D2_CH_BAC
 10
0.115447
 20
0.138166
 30
0
  0
VERTEX
  8
72_ARTEK_AKFURNITURE_D2_CH_BAC
 10
0.128222
 20
0.138042
 30
0
  0
VERTEX
  8
72_ARTEK_AKFURNITURE_D2_CH_BAC
 10
0.1442
 20
0.137896
 30
0
  0
VERTEX
  8
72_ARTEK_AKFURNITURE_D2_CH_BAC
 10
0.177674
 20
0.137643
 30
0
  0
VERTEX
  8
72_ARTEK_AKFURNITURE_D2_CH_BAC
 10
0.211148
 20
0.137474
 30
0
  0
VERTEX
  8
72_ARTEK_AKFURNITURE_D2_CH_BAC
 10
0.227588
 20
0.13742
 30
0
  0
VERTEX
  8
72_ARTEK_AKFURNITURE_D2_CH_BAC
 10
0.240876
 20
0.137383
 30
0
  0
VERTEX
  8
72_ARTEK_AKFURNITURE_D2_CH_BAC
 10
0.250294
 20
0.137363
 30
0
  0
VERTEX
  8
72_ARTEK_AKFURNITURE_D2_CH_BAC
 10
0.257896
 20
0.137354
 30
0
  0
VERTEX
  8
72_ARTEK_AKFURNITURE_D2_CH_BAC
 10
0.266444
 20
0.137348
 30
0
  0
VERTEX
  8
72_ARTEK_AKFURNITURE_D2_CH_BAC
 10
0.276153
 20
0.137346
 30
0
  0
VERTEX
  8
72_ARTEK_AKFURNITURE_D2_CH_BAC
 10
0.288478
 20
0.137344
 30
0
  0
VERTEX
  8
72_ARTEK_AKFURNITURE_D2_CH_BAC
 10
0.303711
 20
0.137344
 30
0
  0
VERTEX
  8
72_ARTEK_AKFURNITURE_D2_CH_BAC
 10
0.319044
 20
0.137344
 30
0
  0
VERTEX
  8
72_ARTEK_AKFURNITURE_D2_CH_BAC
 10
0.331469
 20
0.137346
 30
0
  0
VERTEX
  8
72_ARTEK_AKFURNITURE_D2_CH_BAC
 10
0.341243
 20
0.137348
 30
0
  0
VERTEX
  8
72_ARTEK_AKFURNITURE_D2_CH_BAC
 10
0.349825
 20
0.137353
 30
0
  0
VERTEX
  8
72_ARTEK_AKFURNITURE_D2_CH_BAC
 10
0.357449
 20
0.137363
 30
0
  0
VERTEX
  8
72_ARTEK_AKFURNITURE_D2_CH_BAC
 10
0.366734
 20
0.137383
 30
0
  0
VERTEX
  8
72_ARTEK_AKFURNITURE_D2_CH_BAC
 10
0.379888
 20
0.137419
 30
0
  0
VERTEX
  8
72_ARTEK_AKFURNITURE_D2_CH_BAC
 10
0.396274
 20
0.137472
 30
0
  0
VERTEX
  8
72_ARTEK_AKFURNITURE_D2_CH_BAC
 10
0.429748
 20
0.13764
 30
0
  0
VERTEX
  8
72_ARTEK_AKFURNITURE_D2_CH_BAC
 10
0.463222
 20
0.137891
 30
0
  0
VERTEX
  8
72_ARTEK_AKFURNITURE_D2_CH_BAC
 10
0.479276
 20
0.138038
 30
0
  0
VERTEX
  8
72_ARTEK_AKFURNITURE_D2_CH_BAC
 10
0.492167
 20
0.138162
 30
0
  0
VERTEX
  8
72_ARTEK_AKFURNITURE_D2_CH_BAC
 10
0.501707
 20
0.138261
 30
0
  0
VERTEX
  8
72_ARTEK_AKFURNITURE_D2_CH_BAC
 10
0.509611
 20
0.138347
 30
0
  0
VERTEX
  8
72_ARTEK_AKFURNITURE_D2_CH_BAC
 10
0.523494
 20
0.138505
 30
0
  0
VERTEX
  8
72_ARTEK_AKFURNITURE_D2_CH_BAC
 10
0.536747
 20
0.138658
 30
0
  0
VERTEX
  8
72_ARTEK_AKFURNITURE_D2_CH_BAC
 10
0.542377
 20
0.13872
 30
0
  0
VERTEX
  8
72_ARTEK_AKFURNITURE_D2_CH_BAC
 10
0.546611
 20
0.138761
 30
0
  0
VERTEX
  8
72_ARTEK_AKFURNITURE_D2_CH_BAC
 10
0.558859
 20
0.138856
 30
0
  0
VERTEX
  8
72_ARTEK_AKFURNITURE_D2_CH_BAC
 10
0.565261
 20
0.138867
 30
0
  0
VERTEX
  8
72_ARTEK_AKFURNITURE_D2_CH_BAC
 10
0.573657
 20
0.139414
 30
0
  0
VERTEX
  8
72_ARTEK_AKFURNITURE_D2_CH_BAC
 10
0.579184
 20
0.140469
 30
0
  0
VERTEX
  8
72_ARTEK_AKFURNITURE_D2_CH_BAC
 10
0.582882
 20
0.141764
 30
0
  0
SEQEND
  0
POLYLINE
  8
72_ARTEK_AKFURNITURE_D2_CH_BAC
 66
     1
 70
     0
 10
0.0
 20
0.0
 30
0.0
  0
VERTEX
  8
72_ARTEK_AKFURNITURE_D2_CH_BAC
 10
0.585324
 20
0.248796
 30
0
  0
VERTEX
  8
72_ARTEK_AKFURNITURE_D2_CH_BAC
 10
0.585
 20
0.189005
 30
0
  0
VERTEX
  8
72_ARTEK_AKFURNITURE_D2_CH_BAC
 10
0.585
 20
0.158782
 30
0
  0
VERTEX
  8
72_ARTEK_AKFURNITURE_D2_CH_BAC
 10
0.585
 20
0.14367
 30
0
  0
VERTEX
  8
72_ARTEK_AKFURNITURE_D2_CH_BAC
 10
0.587121
 20
0.141762
 30
0
  0
VERTEX
  8
72_ARTEK_AKFURNITURE_D2_CH_BAC
 10
0.589553
 20
0.140833
 30
0
  0
VERTEX
  8
72_ARTEK_AKFURNITURE_D2_CH_BAC
 10
0.597316
 20
0.139311
 30
0
  0
VERTEX
  8
72_ARTEK_AKFURNITURE_D2_CH_BAC
 10
0.603623
 20
0.138895
 30
0
  0
VERTEX
  8
72_ARTEK_AKFURNITURE_D2_CH_BAC
 10
0.608009
 20
0.138863
 30
0
  0
VERTEX
  8
72_ARTEK_AKFURNITURE_D2_CH_BAC
 10
0.610327
 20
0.138859
 30
0
  0
VERTEX
  8
72_ARTEK_AKFURNITURE_D2_CH_BAC
 10
0.613921
 20
0.138837
 30
0
  0
VERTEX
  8
72_ARTEK_AKFURNITURE_D2_CH_BAC
 10
0.622989
 20
0.138764
 30
0
  0
VERTEX
  8
72_ARTEK_AKFURNITURE_D2_CH_BAC
 10
0.629188
 20
0.138703
 30
0
  0
VERTEX
  8
72_ARTEK_AKFURNITURE_D2_CH_BAC
 10
0.63803
 20
0.138603
 30
0
  0
VERTEX
  8
72_ARTEK_AKFURNITURE_D2_CH_BAC
 10
0.657163
 20
0.138383
 30
0
  0
VERTEX
  8
72_ARTEK_AKFURNITURE_D2_CH_BAC
 10
0.668163
 20
0.138262
 30
0
  0
VERTEX
  8
72_ARTEK_AKFURNITURE_D2_CH_BAC
 10
0.674568
 20
0.138195
 30
0
  0
VERTEX
  8
72_ARTEK_AKFURNITURE_D2_CH_BAC
 10
0.682636
 20
0.138115
 30
0
  0
VERTEX
  8
72_ARTEK_AKFURNITURE_D2_CH_BAC
 10
0.692413
 20
0.138022
 30
0
  0
VERTEX
  8
72_ARTEK_AKFURNITURE_D2_CH_BAC
 10
0.703837
 20
0.137917
 30
0
  0
VERTEX
  8
72_ARTEK_AKFURNITURE_D2_CH_BAC
 10
0.727604
 20
0.137725
 30
0
  0
VERTEX
  8
72_ARTEK_AKFURNITURE_D2_CH_BAC
 10
0.775138
 20
0.137467
 30
0
  0
VERTEX
  8
72_ARTEK_AKFURNITURE_D2_CH_BAC
 10
0.786927
 20
0.137428
 30
0
  0
VERTEX
  8
72_ARTEK_AKFURNITURE_D2_CH_BAC
 10
0.79723
 20
0.137398
 30
0
  0
VERTEX
  8
72_ARTEK_AKFURNITURE_D2_CH_BAC
 10
0.805582
 20
0.137377
 30
0
  0
VERTEX
  8
72_ARTEK_AKFURNITURE_D2_CH_BAC
 10
0.811984
 20
0.137364
 30
0
  0
VERTEX
  8
72_ARTEK_AKFURNITURE_D2_CH_BAC
 10
0.823022
 20
0.137351
 30
0
  0
VERTEX
  8
72_ARTEK_AKFURNITURE_D2_CH_BAC
 10
0.836026
 20
0.137346
 30
0
  0
VERTEX
  8
72_ARTEK_AKFURNITURE_D2_CH_BAC
 10
0.844063
 20
0.137345
 30
0
  0
VERTEX
  8
72_ARTEK_AKFURNITURE_D2_CH_BAC
 10
0.853565
 20
0.137344
 30
0
  0
VERTEX
  8
72_ARTEK_AKFURNITURE_D2_CH_BAC
 10
0.875843
 20
0.137344
 30
0
  0
VERTEX
  8
72_ARTEK_AKFURNITURE_D2_CH_BAC
 10
0.88571
 20
0.137345
 30
0
  0
VERTEX
  8
72_ARTEK_AKFURNITURE_D2_CH_BAC
 10
0.894111
 20
0.137346
 30
0
  0
VERTEX
  8
72_ARTEK_AKFURNITURE_D2_CH_BAC
 10
0.907473
 20
0.13735
 30
0
  0
VERTEX
  8
72_ARTEK_AKFURNITURE_D2_CH_BAC
 10
0.918719
 20
0.137362
 30
0
  0
VERTEX
  8
72_ARTEK_AKFURNITURE_D2_CH_BAC
 10
0.924643
 20
0.137373
 30
0
  0
VERTEX
  8
72_ARTEK_AKFURNITURE_D2_CH_BAC
 10
0.93251
 20
0.137392
 30
0
  0
VERTEX
  8
72_ARTEK_AKFURNITURE_D2_CH_BAC
 10
0.942327
 20
0.13742
 30
0
  0
VERTEX
  8
72_ARTEK_AKFURNITURE_D2_CH_BAC
 10
0.953906
 20
0.137456
 30
0
  0
VERTEX
  8
72_ARTEK_AKFURNITURE_D2_CH_BAC
 10
0.977672
 20
0.137559
 30
0
  0
VERTEX
  8
72_ARTEK_AKFURNITURE_D2_CH_BAC
 10
1.02521
 20
0.13789
 30
0
  0
VERTEX
  8
72_ARTEK_AKFURNITURE_D2_CH_BAC
 10
1.03689
 20
0.137997
 30
0
  0
VERTEX
  8
72_ARTEK_AKFURNITURE_D2_CH_BAC
 10
1.04709
 20
0.138093
 30
0
  0
VERTEX
  8
72_ARTEK_AKFURNITURE_D2_CH_BAC
 10
1.05558
 20
0.138176
 30
0
  0
VERTEX
  8
72_ARTEK_AKFURNITURE_D2_CH_BAC
 10
1.06237
 20
0.138246
 30
0
  0
VERTEX
  8
72_ARTEK_AKFURNITURE_D2_CH_BAC
 10
1.07354
 20
0.138368
 30
0
  0
VERTEX
  8
72_ARTEK_AKFURNITURE_D2_CH_BAC
 10
1.08336
 20
0.13848
 30
0
  0
VERTEX
  8
72_ARTEK_AKFURNITURE_D2_CH_BAC
 10
1.10184
 20
0.138693
 30
0
  0
VERTEX
  8
72_ARTEK_AKFURNITURE_D2_CH_BAC
 10
1.10839
 20
0.138759
 30
0
  0
VERTEX
  8
72_ARTEK_AKFURNITURE_D2_CH_BAC
 10
1.113
 20
0.138796
 30
0
  0
VERTEX
  8
72_ARTEK_AKFURNITURE_D2_CH_BAC
 10
1.1213
 20
0.138858
 30
0
  0
VERTEX
  8
72_ARTEK_AKFURNITURE_D2_CH_BAC
 10
1.12582
 20
0.138863
 30
0
  0
VERTEX
  8
72_ARTEK_AKFURNITURE_D2_CH_BAC
 10
1.13681
 20
0.139565
 30
0
  0
VERTEX
  8
72_ARTEK_AKFURNITURE_D2_CH_BAC
 10
1.14363
 20
0.141233
 30
0
  0
VERTEX
  8
72_ARTEK_AKFURNITURE_D2_CH_BAC
 10
1.14823
 20
0.144449
 30
0
  0
VERTEX
  8
72_ARTEK_AKFURNITURE_D2_CH_BAC
 10
1.149
 20
0.146234
 30
0
  0
VERTEX
  8
72_ARTEK_AKFURNITURE_D2_CH_BAC
 10
1.14969
 20
0.149455
 30
0
  0
VERTEX
  8
72_ARTEK_AKFURNITURE_D2_CH_BAC
 10
1.15
 20
0.244502
 30
0
  0
VERTEX
  8
72_ARTEK_AKFURNITURE_D2_CH_BAC
 10
1.15
 20
0.250472
 30
0
  0
VERTEX
  8
72_ARTEK_AKFURNITURE_D2_CH_BAC
 10
1.15
 20
0.253456
 30
0
  0
VERTEX
  8
72_ARTEK_AKFURNITURE_D2_CH_BAC
 10
1.15
 20
0.254949
 30
0
  0
VERTEX
  8
72_ARTEK_AKFURNITURE_D2_CH_BAC
 10
1.15
 20
0.255605
 30
0
  0
VERTEX
  8
72_ARTEK_AKFURNITURE_D2_CH_BAC
 10
1.14994
 20
0.254911
 30
0
  0
VERTEX
  8
72_ARTEK_AKFURNITURE_D2_CH_BAC
 10
1.14925
 20
0.251971
 30
0
  0
VERTEX
  8
72_ARTEK_AKFURNITURE_D2_CH_BAC
 10
1.14816
 20
0.250138
 30
0
  0
VERTEX
  8
72_ARTEK_AKFURNITURE_D2_CH_BAC
 10
1.14356
 20
0.247016
 30
0
  0
VERTEX
  8
72_ARTEK_AKFURNITURE_D2_CH_BAC
 10
1.13915
 20
0.245628
 30
0
  0
VERTEX
  8
72_ARTEK_AKFURNITURE_D2_CH_BAC
 10
1.13313
 20
0.244588
 30
0
  0
VERTEX
  8
72_ARTEK_AKFURNITURE_D2_CH_BAC
 10
1.12976
 20
0.244226
 30
0
  0
VERTEX
  8
72_ARTEK_AKFURNITURE_D2_CH_BAC
 10
1.12823
 20
0.244147
 30
0
  0
VERTEX
  8
72_ARTEK_AKFURNITURE_D2_CH_BAC
 10
1.12463
 20
0.244093
 30
0
  0
VERTEX
  8
72_ARTEK_AKFURNITURE_D2_CH_BAC
 10
1.11897
 20
0.244061
 30
0
  0
VERTEX
  8
72_ARTEK_AKFURNITURE_D2_CH_BAC
 10
1.11169
 20
0.244013
 30
0
  0
VERTEX
  8
72_ARTEK_AKFURNITURE_D2_CH_BAC
 10
1.10293
 20
0.243935
 30
0
  0
VERTEX
  8
72_ARTEK_AKFURNITURE_D2_CH_BAC
 10
1.0925
 20
0.243829
 30
0
  0
VERTEX
  8
72_ARTEK_AKFURNITURE_D2_CH_BAC
 10
1.08003
 20
0.243698
 30
0
  0
VERTEX
  8
72_ARTEK_AKFURNITURE_D2_CH_BAC
 10
1.06521
 20
0.243543
 30
0
  0
VERTEX
  8
72_ARTEK_AKFURNITURE_D2_CH_BAC
 10
1.05564
 20
0.243453
 30
0
  0
VERTEX
  8
72_ARTEK_AKFURNITURE_D2_CH_BAC
 10
1.04423
 20
0.243355
 30
0
  0
VERTEX
  8
72_ARTEK_AKFURNITURE_D2_CH_BAC
 10
1.03099
 20
0.243248
 30
0
  0
VERTEX
  8
72_ARTEK_AKFURNITURE_D2_CH_BAC
 10
1.01591
 20
0.243133
 30
0
  0
VERTEX
  8
72_ARTEK_AKFURNITURE_D2_CH_BAC
 10
0.949659
 20
0.242768
 30
0
  0
VERTEX
  8
72_ARTEK_AKFURNITURE_D2_CH_BAC
 10
0.916886
 20
0.242692
 30
0
  0
VERTEX
  8
72_ARTEK_AKFURNITURE_D2_CH_BAC
 10
0.902287
 20
0.242669
 30
0
  0
VERTEX
  8
72_ARTEK_AKFURNITURE_D2_CH_BAC
 10
0.889351
 20
0.242652
 30
0
  0
VERTEX
  8
72_ARTEK_AKFURNITURE_D2_CH_BAC
 10
0.87808
 20
0.242641
 30
0
  0
VERTEX
  8
72_ARTEK_AKFURNITURE_D2_CH_BAC
 10
0.868472
 20
0.242636
 30
0
  0
VERTEX
  8
72_ARTEK_AKFURNITURE_D2_CH_BAC
 10
0.859689
 20
0.242637
 30
0
  0
VERTEX
  8
72_ARTEK_AKFURNITURE_D2_CH_BAC
 10
0.849382
 20
0.242645
 30
0
  0
VERTEX
  8
72_ARTEK_AKFURNITURE_D2_CH_BAC
 10
0.837411
 20
0.242658
 30
0
  0
VERTEX
  8
72_ARTEK_AKFURNITURE_D2_CH_BAC
 10
0.823775
 20
0.242678
 30
0
  0
VERTEX
  8
72_ARTEK_AKFURNITURE_D2_CH_BAC
 10
0.808476
 20
0.242704
 30
0
  0
VERTEX
  8
72_ARTEK_AKFURNITURE_D2_CH_BAC
 10
0.791951
 20
0.242739
 30
0
  0
VERTEX
  8
72_ARTEK_AKFURNITURE_D2_CH_BAC
 10
0.725604
 20
0.243063
 30
0
  0
VERTEX
  8
72_ARTEK_AKFURNITURE_D2_CH_BAC
 10
0.709524
 20
0.243182
 30
0
  0
VERTEX
  8
72_ARTEK_AKFURNITURE_D2_CH_BAC
 10
0.695217
 20
0.243294
 30
0
  0
VERTEX
  8
72_ARTEK_AKFURNITURE_D2_CH_BAC
 10
0.682747
 20
0.243397
 30
0
  0
VERTEX
  8
72_ARTEK_AKFURNITURE_D2_CH_BAC
 10
0.672111
 20
0.243492
 30
0
  0
VERTEX
  8
72_ARTEK_AKFURNITURE_D2_CH_BAC
 10
0.663312
 20
0.243578
 30
0
  0
VERTEX
  8
72_ARTEK_AKFURNITURE_D2_CH_BAC
 10
0.655967
 20
0.243656
 30
0
  0
VERTEX
  8
72_ARTEK_AKFURNITURE_D2_CH_BAC
 10
0.642898
 20
0.243793
 30
0
  0
VERTEX
  8
72_ARTEK_AKFURNITURE_D2_CH_BAC
 10
0.631885
 20
0.243906
 30
0
  0
VERTEX
  8
72_ARTEK_AKFURNITURE_D2_CH_BAC
 10
0.6227
 20
0.243993
 30
0
  0
VERTEX
  8
72_ARTEK_AKFURNITURE_D2_CH_BAC
 10
0.614989
 20
0.24405
 30
0
  0
VERTEX
  8
72_ARTEK_AKFURNITURE_D2_CH_BAC
 10
0.608799
 20
0.244082
 30
0
  0
VERTEX
  8
72_ARTEK_AKFURNITURE_D2_CH_BAC
 10
0.604596
 20
0.244129
 30
0
  0
VERTEX
  8
72_ARTEK_AKFURNITURE_D2_CH_BAC
 10
0.602494
 20
0.244201
 30
0
  0
VERTEX
  8
72_ARTEK_AKFURNITURE_D2_CH_BAC
 10
0.600787
 20
0.244375
 30
0
  0
VERTEX
  8
72_ARTEK_AKFURNITURE_D2_CH_BAC
 10
0.597504
 20
0.244773
 30
0
  0
VERTEX
  8
72_ARTEK_AKFURNITURE_D2_CH_BAC
 10
0.591719
 20
0.245904
 30
0
  0
VERTEX
  8
72_ARTEK_AKFURNITURE_D2_CH_BAC
 10
0.587784
 20
0.247315
 30
0
  0
VERTEX
  8
72_ARTEK_AKFURNITURE_D2_CH_BAC
 10
0.585324
 20
0.248796
 30
0
  0
SEQEND
  0
POLYLINE
  8
72_ARTEK_AKFURNITURE_D2_CH_BAC
 66
     1
 70
     0
 10
0.0
 20
0.0
 30
0.0
  0
VERTEX
  8
72_ARTEK_AKFURNITURE_D2_CH_BAC
 10
0.585317
 20
0.348517
 30
0
  0
VERTEX
  8
72_ARTEK_AKFURNITURE_D2_CH_BAC
 10
0.585
 20
0.292296
 30
0
  0
VERTEX
  8
72_ARTEK_AKFURNITURE_D2_CH_BAC
 10
0.585
 20
0.264108
 30
0
  0
VERTEX
  8
72_ARTEK_AKFURNITURE_D2_CH_BAC
 10
0.585
 20
0.250014
 30
0
  0
VERTEX
  8
72_ARTEK_AKFURNITURE_D2_CH_BAC
 10
0.585635
 20
0.248569
 30
0
  0
VERTEX
  8
72_ARTEK_AKFURNITURE_D2_CH_BAC
 10
0.587177
 20
0.247603
 30
0
  0
VERTEX
  8
72_ARTEK_AKFURNITURE_D2_CH_BAC
 10
0.592243
 20
0.245768
 30
0
  0
VERTEX
  8
72_ARTEK_AKFURNITURE_D2_CH_BAC
 10
0.600175
 20
0.244438
 30
0
  0
VERTEX
  8
72_ARTEK_AKFURNITURE_D2_CH_BAC
 10
0.602393
 20
0.24421
 30
0
  0
VERTEX
  8
72_ARTEK_AKFURNITURE_D2_CH_BAC
 10
0.60527
 20
0.244117
 30
0
  0
VERTEX
  8
72_ARTEK_AKFURNITURE_D2_CH_BAC
 10
0.611733
 20
0.244067
 30
0
  0
VERTEX
  8
72_ARTEK_AKFURNITURE_D2_CH_BAC
 10
0.62116
 20
0.244006
 30
0
  0
VERTEX
  8
72_ARTEK_AKFURNITURE_D2_CH_BAC
 10
0.633116
 20
0.243894
 30
0
  0
VERTEX
  8
72_ARTEK_AKFURNITURE_D2_CH_BAC
 10
0.64825
 20
0.243737
 30
0
  0
VERTEX
  8
72_ARTEK_AKFURNITURE_D2_CH_BAC
 10
0.657135
 20
0.243643
 30
0
  0
VERTEX
  8
72_ARTEK_AKFURNITURE_D2_CH_BAC
 10
0.667234
 20
0.243538
 30
0
  0
VERTEX
  8
72_ARTEK_AKFURNITURE_D2_CH_BAC
 10
0.680236
 20
0.243419
 30
0
  0
VERTEX
  8
72_ARTEK_AKFURNITURE_D2_CH_BAC
 10
0.696373
 20
0.243285
 30
0
  0
VERTEX
  8
72_ARTEK_AKFURNITURE_D2_CH_BAC
 10
0.715646
 20
0.243136
 30
0
  0
VERTEX
  8
72_ARTEK_AKFURNITURE_D2_CH_BAC
 10
0.737214
 20
0.242985
 30
0
  0
VERTEX
  8
72_ARTEK_AKFURNITURE_D2_CH_BAC
 10
0.780574
 20
0.242774
 30
0
  0
VERTEX
  8
72_ARTEK_AKFURNITURE_D2_CH_BAC
 10
0.802253
 20
0.242716
 30
0
  0
VERTEX
  8
72_ARTEK_AKFURNITURE_D2_CH_BAC
 10
0.822732
 20
0.24268
 30
0
  0
VERTEX
  8
72_ARTEK_AKFURNITURE_D2_CH_BAC
 10
0.840376
 20
0.242655
 30
0
  0
VERTEX
  8
72_ARTEK_AKFURNITURE_D2_CH_BAC
 10
0.855178
 20
0.24264
 30
0
  0
VERTEX
  8
72_ARTEK_AKFURNITURE_D2_CH_BAC
 10
0.879733
 20
0.242642
 30
0
  0
VERTEX
  8
72_ARTEK_AKFURNITURE_D2_CH_BAC
 10
0.895139
 20
0.242659
 30
0
  0
VERTEX
  8
72_ARTEK_AKFURNITURE_D2_CH_BAC
 10
0.913389
 20
0.242687
 30
0
  0
VERTEX
  8
72_ARTEK_AKFURNITURE_D2_CH_BAC
 10
0.956038
 20
0.24279
 30
0
  0
VERTEX
  8
72_ARTEK_AKFURNITURE_D2_CH_BAC
 10
0.999398
 20
0.243015
 30
0
  0
VERTEX
  8
72_ARTEK_AKFURNITURE_D2_CH_BAC
 10
1.02072
 20
0.243169
 30
0
  0
VERTEX
  8
72_ARTEK_AKFURNITURE_D2_CH_BAC
 10
1.03932
 20
0.243315
 30
0
  0
VERTEX
  8
72_ARTEK_AKFURNITURE_D2_CH_BAC
 10
1.05479
 20
0.243445
 30
0
  0
VERTEX
  8
72_ARTEK_AKFURNITURE_D2_CH_BAC
 10
1.06713
 20
0.243562
 30
0
  0
VERTEX
  8
72_ARTEK_AKFURNITURE_D2_CH_BAC
 10
1.08553
 20
0.243756
 30
0
  0
VERTEX
  8
72_ARTEK_AKFURNITURE_D2_CH_BAC
 10
1.10029
 20
0.243908
 30
0
  0
VERTEX
  8
72_ARTEK_AKFURNITURE_D2_CH_BAC
 10
1.11196
 20
0.244015
 30
0
  0
VERTEX
  8
72_ARTEK_AKFURNITURE_D2_CH_BAC
 10
1.12112
 20
0.244071
 30
0
  0
VERTEX
  8
72_ARTEK_AKFURNITURE_D2_CH_BAC
 10
1.12721
 20
0.244125
 30
0
  0
VERTEX
  8
72_ARTEK_AKFURNITURE_D2_CH_BAC
 10
1.12972
 20
0.244222
 30
0
  0
VERTEX
  8
72_ARTEK_AKFURNITURE_D2_CH_BAC
 10
1.13083
 20
0.244336
 30
0
  0
VERTEX
  8
72_ARTEK_AKFURNITURE_D2_CH_BAC
 10
1.13303
 20
0.244575
 30
0
  0
VERTEX
  8
72_ARTEK_AKFURNITURE_D2_CH_BAC
 10
1.13713
 20
0.245178
 30
0
  0
VERTEX
  8
72_ARTEK_AKFURNITURE_D2_CH_BAC
 10
1.14339
 20
0.246939
 30
0
  0
VERTEX
  8
72_ARTEK_AKFURNITURE_D2_CH_BAC
 10
1.14676
 20
0.248859
 30
0
  0
VERTEX
  8
72_ARTEK_AKFURNITURE_D2_CH_BAC
 10
1.14886
 20
0.251211
 30
0
  0
VERTEX
  8
72_ARTEK_AKFURNITURE_D2_CH_BAC
 10
1.14986
 20
0.254266
 30
0
  0
VERTEX
  8
72_ARTEK_AKFURNITURE_D2_CH_BAC
 10
1.15
 20
0.261863
 30
0
  0
VERTEX
  8
72_ARTEK_AKFURNITURE_D2_CH_BAC
 10
1.15
 20
0.324283
 30
0
  0
VERTEX
  8
72_ARTEK_AKFURNITURE_D2_CH_BAC
 10
1.15
 20
0.339888
 30
0
  0
VERTEX
  8
72_ARTEK_AKFURNITURE_D2_CH_BAC
 10
1.14972
 20
0.342238
 30
0
  0
VERTEX
  8
72_ARTEK_AKFURNITURE_D2_CH_BAC
 10
1.14919
 20
0.343411
 30
0
  0
VERTEX
  8
72_ARTEK_AKFURNITURE_D2_CH_BAC
 10
1.14892
 20
0.344908
 30
0
  0
VERTEX
  8
72_ARTEK_AKFURNITURE_D2_CH_BAC
 10
1.1486
 20
0.346564
 30
0
  0
VERTEX
  8
72_ARTEK_AKFURNITURE_D2_CH_BAC
 10
1.14638
 20
0.348744
 30
0
  0
VERTEX
  8
72_ARTEK_AKFURNITURE_D2_CH_BAC
 10
1.14304
 20
0.350575
 30
0
  0
VERTEX
  8
72_ARTEK_AKFURNITURE_D2_CH_BAC
 10
1.14021
 20
0.351503
 30
0
  0
VERTEX
  8
72_ARTEK_AKFURNITURE_D2_CH_BAC
 10
1.13503
 20
0.352582
 30
0
  0
VERTEX
  8
72_ARTEK_AKFURNITURE_D2_CH_BAC
 10
1.13098
 20
0.353102
 30
0
  0
VERTEX
  8
72_ARTEK_AKFURNITURE_D2_CH_BAC
 10
1.12555
 20
0.353367
 30
0
  0
VERTEX
  8
72_ARTEK_AKFURNITURE_D2_CH_BAC
 10
1.12174
 20
0.35337
 30
0
  0
VERTEX
  8
72_ARTEK_AKFURNITURE_D2_CH_BAC
 10
1.11492
 20
0.353417
 30
0
  0
VERTEX
  8
72_ARTEK_AKFURNITURE_D2_CH_BAC
 10
1.10674
 20
0.353485
 30
0
  0
VERTEX
  8
72_ARTEK_AKFURNITURE_D2_CH_BAC
 10
1.10056
 20
0.353549
 30
0
  0
VERTEX
  8
72_ARTEK_AKFURNITURE_D2_CH_BAC
 10
1.09179
 20
0.353649
 30
0
  0
VERTEX
  8
72_ARTEK_AKFURNITURE_D2_CH_BAC
 10
1.08565
 20
0.353717
 30
0
  0
VERTEX
  8
72_ARTEK_AKFURNITURE_D2_CH_BAC
 10
1.07824
 20
0.353799
 30
0
  0
VERTEX
  8
72_ARTEK_AKFURNITURE_D2_CH_BAC
 10
1.06023
 20
0.353994
 30
0
  0
VERTEX
  8
72_ARTEK_AKFURNITURE_D2_CH_BAC
 10
1.02044
 20
0.354371
 30
0
  0
VERTEX
  8
72_ARTEK_AKFURNITURE_D2_CH_BAC
 10
0.938617
 20
0.354815
 30
0
  0
VERTEX
  8
72_ARTEK_AKFURNITURE_D2_CH_BAC
 10
0.774961
 20
0.354759
 30
0
  0
VERTEX
  8
72_ARTEK_AKFURNITURE_D2_CH_BAC
 10
0.693205
 20
0.354207
 30
0
  0
VERTEX
  8
72_ARTEK_AKFURNITURE_D2_CH_BAC
 10
0.673653
 20
0.354014
 30
0
  0
VERTEX
  8
72_ARTEK_AKFURNITURE_D2_CH_BAC
 10
0.655388
 20
0.353817
 30
0
  0
VERTEX
  8
72_ARTEK_AKFURNITURE_D2_CH_BAC
 10
0.647726
 20
0.353732
 30
0
  0
VERTEX
  8
72_ARTEK_AKFURNITURE_D2_CH_BAC
 10
0.64133
 20
0.353661
 30
0
  0
VERTEX
  8
72_ARTEK_AKFURNITURE_D2_CH_BAC
 10
0.632174
 20
0.353558
 30
0
  0
VERTEX
  8
72_ARTEK_AKFURNITURE_D2_CH_BAC
 10
0.625779
 20
0.35349
 30
0
  0
VERTEX
  8
72_ARTEK_AKFURNITURE_D2_CH_BAC
 10
0.621371
 20
0.353452
 30
0
  0
VERTEX
  8
72_ARTEK_AKFURNITURE_D2_CH_BAC
 10
0.6136
 20
0.35339
 30
0
  0
VERTEX
  8
72_ARTEK_AKFURNITURE_D2_CH_BAC
 10
0.608433
 20
0.353367
 30
0
  0
VERTEX
  8
72_ARTEK_AKFURNITURE_D2_CH_BAC
 10
0.604846
 20
0.353365
 30
0
  0
VERTEX
  8
72_ARTEK_AKFURNITURE_D2_CH_BAC
 10
0.596085
 20
0.352453
 30
0
  0
VERTEX
  8
72_ARTEK_AKFURNITURE_D2_CH_BAC
 10
0.591017
 20
0.351274
 30
0
  0
VERTEX
  8
72_ARTEK_AKFURNITURE_D2_CH_BAC
 10
0.588497
 20
0.350374
 30
0
  0
VERTEX
  8
72_ARTEK_AKFURNITURE_D2_CH_BAC
 10
0.585317
 20
0.348517
 30
0
  0
SEQEND
  0
POLYLINE
  8
72_ARTEK_AKFURNITURE_D2_CH_BAC
 66
     1
 70
     0
 10
0.0
 20
0.0
 30
0.0
  0
VERTEX
  8
72_ARTEK_AKFURNITURE_D2_CH_BAC
 10
0.585
 20
0.249043
 30
0
  0
VERTEX
  8
72_ARTEK_AKFURNITURE_D2_CH_BAC
 10
0.585
 20
0.303899
 30
0
  0
VERTEX
  8
72_ARTEK_AKFURNITURE_D2_CH_BAC
 10
0.585
 20
0.331328
 30
0
  0
VERTEX
  8
72_ARTEK_AKFURNITURE_D2_CH_BAC
 10
0.585
 20
0.345042
 30
0
  0
VERTEX
  8
72_ARTEK_AKFURNITURE_D2_CH_BAC
 10
0.584842
 20
0.348393
 30
0
  0
VERTEX
  8
72_ARTEK_AKFURNITURE_D2_CH_BAC
 10
0.581646
 20
0.350307
 30
0
  0
VERTEX
  8
72_ARTEK_AKFURNITURE_D2_CH_BAC
 10
0.579128
 20
0.351226
 30
0
  0
VERTEX
  8
72_ARTEK_AKFURNITURE_D2_CH_BAC
 10
0.574045
 20
0.352432
 30
0
  0
VERTEX
  8
72_ARTEK_AKFURNITURE_D2_CH_BAC
 10
0.565056
 20
0.353366
 30
0
  0
VERTEX
  8
72_ARTEK_AKFURNITURE_D2_CH_BAC
 10
0.561383
 20
0.353367
 30
0
  0
VERTEX
  8
72_ARTEK_AKFURNITURE_D2_CH_BAC
 10
0.555857
 20
0.353394
 30
0
  0
VERTEX
  8
72_ARTEK_AKFURNITURE_D2_CH_BAC
 10
0.547879
 20
0.353458
 30
0
  0
VERTEX
  8
72_ARTEK_AKFURNITURE_D2_CH_BAC
 10
0.543026
 20
0.353502
 30
0
  0
VERTEX
  8
72_ARTEK_AKFURNITURE_D2_CH_BAC
 10
0.536005
 20
0.353578
 30
0
  0
VERTEX
  8
72_ARTEK_AKFURNITURE_D2_CH_BAC
 10
0.531414
 20
0.35363
 30
0
  0
VERTEX
  8
72_ARTEK_AKFURNITURE_D2_CH_BAC
 10
0.525512
 20
0.353696
 30
0
  0
VERTEX
  8
72_ARTEK_AKFURNITURE_D2_CH_BAC
 10
0.518287
 20
0.353777
 30
0
  0
VERTEX
  8
72_ARTEK_AKFURNITURE_D2_CH_BAC
 10
0.509738
 20
0.353871
 30
0
  0
VERTEX
  8
72_ARTEK_AKFURNITURE_D2_CH_BAC
 10
0.470186
 20
0.354268
 30
0
  0
VERTEX
  8
72_ARTEK_AKFURNITURE_D2_CH_BAC
 10
0.386524
 20
0.354788
 30
0
  0
VERTEX
  8
72_ARTEK_AKFURNITURE_D2_CH_BAC
 10
0.2192
 20
0.35478
 30
0
  0
VERTEX
  8
72_ARTEK_AKFURNITURE_D2_CH_BAC
 10
0.13555
 20
0.354247
 30
0
  0
VERTEX
  8
72_ARTEK_AKFURNITURE_D2_CH_BAC
 10
0.115343
 20
0.354052
 30
0
  0
VERTEX
  8
72_ARTEK_AKFURNITURE_D2_CH_BAC
 10
0.0962886
 20
0.353849
 30
0
  0
VERTEX
  8
72_ARTEK_AKFURNITURE_D2_CH_BAC
 10
0.0880284
 20
0.353758
 30
0
  0
VERTEX
  8
72_ARTEK_AKFURNITURE_D2_CH_BAC
 10
0.0810911
 20
0.353681
 30
0
  0
VERTEX
  8
72_ARTEK_AKFURNITURE_D2_CH_BAC
 10
0.0754768
 20
0.353618
 30
0
  0
VERTEX
  8
72_ARTEK_AKFURNITURE_D2_CH_BAC
 10
0.071125
 20
0.353568
 30
0
  0
VERTEX
  8
72_ARTEK_AKFURNITURE_D2_CH_BAC
 10
0.064342
 20
0.353496
 30
0
  0
VERTEX
  8
72_ARTEK_AKFURNITURE_D2_CH_BAC
 10
0.0596862
 20
0.353454
 30
0
  0
VERTEX
  8
72_ARTEK_AKFURNITURE_D2_CH_BAC
 10
0.0517305
 20
0.353391
 30
0
  0
VERTEX
  8
72_ARTEK_AKFURNITURE_D2_CH_BAC
 10
0.046417
 20
0.353367
 30
0
  0
VERTEX
  8
72_ARTEK_AKFURNITURE_D2_CH_BAC
 10
0.0427543
 20
0.353365
 30
0
  0
VERTEX
  8
72_ARTEK_AKFURNITURE_D2_CH_BAC
 10
0.0338322
 20
0.352411
 30
0
  0
VERTEX
  8
72_ARTEK_AKFURNITURE_D2_CH_BAC
 10
0.0287953
 20
0.351201
 30
0
  0
VERTEX
  8
72_ARTEK_AKFURNITURE_D2_CH_BAC
 10
0.026301
 20
0.350282
 30
0
  0
VERTEX
  8
72_ARTEK_AKFURNITURE_D2_CH_BAC
 10
0.0231217
 20
0.348364
 30
0
  0
VERTEX
  8
72_ARTEK_AKFURNITURE_D2_CH_BAC
 10
0.0212475
 20
0.346042
 30
0
  0
VERTEX
  8
72_ARTEK_AKFURNITURE_D2_CH_BAC
 10
0.0210805
 20
0.344462
 30
0
  0
VERTEX
  8
72_ARTEK_AKFURNITURE_D2_CH_BAC
 10
0.0202903
 20
0.342276
 30
0
  0
VERTEX
  8
72_ARTEK_AKFURNITURE_D2_CH_BAC
 10
0.02
 20
0.337907
 30
0
  0
VERTEX
  8
72_ARTEK_AKFURNITURE_D2_CH_BAC
 10
0.02
 20
0.32993
 30
0
  0
VERTEX
  8
72_ARTEK_AKFURNITURE_D2_CH_BAC
 10
0.02
 20
0.298021
 30
0
  0
VERTEX
  8
72_ARTEK_AKFURNITURE_D2_CH_BAC
 10
0.02
 20
0.266111
 30
0
  0
VERTEX
  8
72_ARTEK_AKFURNITURE_D2_CH_BAC
 10
0.02
 20
0.258134
 30
0
  0
VERTEX
  8
72_ARTEK_AKFURNITURE_D2_CH_BAC
 10
0.0201289
 20
0.254329
 30
0
  0
VERTEX
  8
72_ARTEK_AKFURNITURE_D2_CH_BAC
 10
0.0205816
 20
0.252367
 30
0
  0
VERTEX
  8
72_ARTEK_AKFURNITURE_D2_CH_BAC
 10
0.0220257
 20
0.249913
 30
0
  0
VERTEX
  8
72_ARTEK_AKFURNITURE_D2_CH_BAC
 10
0.0248621
 20
0.247779
 30
0
  0
VERTEX
  8
72_ARTEK_AKFURNITURE_D2_CH_BAC
 10
0.0297712
 20
0.24589
 30
0
  0
VERTEX
  8
72_ARTEK_AKFURNITURE_D2_CH_BAC
 10
0.0377515
 20
0.244483
 30
0
  0
VERTEX
  8
72_ARTEK_AKFURNITURE_D2_CH_BAC
 10
0.0400156
 20
0.244249
 30
0
  0
VERTEX
  8
72_ARTEK_AKFURNITURE_D2_CH_BAC
 10
0.0419655
 20
0.244142
 30
0
  0
VERTEX
  8
72_ARTEK_AKFURNITURE_D2_CH_BAC
 10
0.0474503
 20
0.244078
 30
0
  0
VERTEX
  8
72_ARTEK_AKFURNITURE_D2_CH_BAC
 10
0.0563326
 20
0.244028
 30
0
  0
VERTEX
  8
72_ARTEK_AKFURNITURE_D2_CH_BAC
 10
0.0678668
 20
0.243927
 30
0
  0
VERTEX
  8
72_ARTEK_AKFURNITURE_D2_CH_BAC
 10
0.082481
 20
0.243777
 30
0
  0
VERTEX
  8
72_ARTEK_AKFURNITURE_D2_CH_BAC
 10
0.100786
 20
0.243583
 30
0
  0
VERTEX
  8
72_ARTEK_AKFURNITURE_D2_CH_BAC
 10
0.112794
 20
0.243467
 30
0
  0
VERTEX
  8
72_ARTEK_AKFURNITURE_D2_CH_BAC
 10
0.128079
 20
0.243336
 30
0
  0
VERTEX
  8
72_ARTEK_AKFURNITURE_D2_CH_BAC
 10
0.146643
 20
0.243189
 30
0
  0
VERTEX
  8
72_ARTEK_AKFURNITURE_D2_CH_BAC
 10
0.16822
 20
0.243031
 30
0
  0
VERTEX
  8
72_ARTEK_AKFURNITURE_D2_CH_BAC
 10
0.256214
 20
0.242687
 30
0
  0
VERTEX
  8
72_ARTEK_AKFURNITURE_D2_CH_BAC
 10
0.274898
 20
0.242659
 30
0
  0
VERTEX
  8
72_ARTEK_AKFURNITURE_D2_CH_BAC
 10
0.290611
 20
0.242642
 30
0
  0
VERTEX
  8
72_ARTEK_AKFURNITURE_D2_CH_BAC
 10
0.315759
 20
0.242641
 30
0
  0
VERTEX
  8
72_ARTEK_AKFURNITURE_D2_CH_BAC
 10
0.331127
 20
0.242657
 30
0
  0
VERTEX
  8
72_ARTEK_AKFURNITURE_D2_CH_BAC
 10
0.349467
 20
0.242683
 30
0
  0
VERTEX
  8
72_ARTEK_AKFURNITURE_D2_CH_BAC
 10
0.370711
 20
0.242722
 30
0
  0
VERTEX
  8
72_ARTEK_AKFURNITURE_D2_CH_BAC
 10
0.392877
 20
0.242786
 30
0
  0
VERTEX
  8
72_ARTEK_AKFURNITURE_D2_CH_BAC
 10
0.437209
 20
0.243013
 30
0
  0
VERTEX
  8
72_ARTEK_AKFURNITURE_D2_CH_BAC
 10
0.458992
 20
0.243171
 30
0
  0
VERTEX
  8
72_ARTEK_AKFURNITURE_D2_CH_BAC
 10
0.477936
 20
0.24332
 30
0
  0
VERTEX
  8
72_ARTEK_AKFURNITURE_D2_CH_BAC
 10
0.493601
 20
0.243453
 30
0
  0
VERTEX
  8
72_ARTEK_AKFURNITURE_D2_CH_BAC
 10
0.505989
 20
0.243571
 30
0
  0
VERTEX
  8
72_ARTEK_AKFURNITURE_D2_CH_BAC
 10
0.524559
 20
0.243767
 30
0
  0
VERTEX
  8
72_ARTEK_AKFURNITURE_D2_CH_BAC
 10
0.539384
 20
0.243919
 30
0
  0
VERTEX
  8
72_ARTEK_AKFURNITURE_D2_CH_BAC
 10
0.55107
 20
0.244023
 30
0
  0
VERTEX
  8
72_ARTEK_AKFURNITURE_D2_CH_BAC
 10
0.560116
 20
0.244076
 30
0
  0
VERTEX
  8
72_ARTEK_AKFURNITURE_D2_CH_BAC
 10
0.565819
 20
0.244137
 30
0
  0
VERTEX
  8
72_ARTEK_AKFURNITURE_D2_CH_BAC
 10
0.567919
 20
0.244242
 30
0
  0
VERTEX
  8
72_ARTEK_AKFURNITURE_D2_CH_BAC
 10
0.569053
 20
0.244358
 30
0
  0
VERTEX
  8
72_ARTEK_AKFURNITURE_D2_CH_BAC
 10
0.571284
 20
0.244608
 30
0
  0
VERTEX
  8
72_ARTEK_AKFURNITURE_D2_CH_BAC
 10
0.575443
 20
0.245243
 30
0
  0
VERTEX
  8
72_ARTEK_AKFURNITURE_D2_CH_BAC
 10
0.581645
 20
0.247056
 30
0
  0
VERTEX
  8
72_ARTEK_AKFURNITURE_D2_CH_BAC
 10
0.585
 20
0.249043
 30
0
  0
SEQEND
  0
POLYLINE
  8
72_ARTEK_AKFURNITURE_D2SNAP
 66
     1
 70
     0
 10
0.0
 20
0.0
 30
0.0
  0
VERTEX
  8
72_ARTEK_AKFURNITURE_D2SNAP
 10
0.5975
 20
-0
 30
0
  0
VERTEX
  8
72_ARTEK_AKFURNITURE_D2SNAP
 10
0.59726
 20
0.00243863
 30
0
  0
VERTEX
  8
72_ARTEK_AKFURNITURE_D2SNAP
 10
0.596548
 20
0.00478354
 30
0
  0
VERTEX
  8
72_ARTEK_AKFURNITURE_D2SNAP
 10
0.595393
 20
0.00694463
 30
0
  0
VERTEX
  8
72_ARTEK_AKFURNITURE_D2SNAP
 10
0.593839
 20
0.00883883
 30
0
  0
VERTEX
  8
72_ARTEK_AKFURNITURE_D2SNAP
 10
0.591945
 20
0.0103934
 30
0
  0
VERTEX
  8
72_ARTEK_AKFURNITURE_D2SNAP
 10
0.589784
 20
0.0115485
 30
0
  0
VERTEX
  8
72_ARTEK_AKFURNITURE_D2SNAP
 10
0.587439
 20
0.0122598
 30
0
  0
VERTEX
  8
72_ARTEK_AKFURNITURE_D2SNAP
 10
0.585
 20
0.0125
 30
0
  0
VERTEX
  8
72_ARTEK_AKFURNITURE_D2SNAP
 10
0.582561
 20
0.0122598
 30
0
  0
VERTEX
  8
72_ARTEK_AKFURNITURE_D2SNAP
 10
0.580216
 20
0.0115485
 30
0
  0
VERTEX
  8
72_ARTEK_AKFURNITURE_D2SNAP
 10
0.578055
 20
0.0103934
 30
0
  0
VERTEX
  8
72_ARTEK_AKFURNITURE_D2SNAP
 10
0.576161
 20
0.00883883
 30
0
  0
VERTEX
  8
72_ARTEK_AKFURNITURE_D2SNAP
 10
0.574607
 20
0.00694463
 30
0
  0
VERTEX
  8
72_ARTEK_AKFURNITURE_D2SNAP
 10
0.573452
 20
0.00478354
 30
0
  0
VERTEX
  8
72_ARTEK_AKFURNITURE_D2SNAP
 10
0.57274
 20
0.00243863
 30
0
  0
VERTEX
  8
72_ARTEK_AKFURNITURE_D2SNAP
 10
0.5725
 20
3.15316e-018
 30
0
  0
VERTEX
  8
72_ARTEK_AKFURNITURE_D2SNAP
 10
0.57274
 20
-0.00243863
 30
0
  0
VERTEX
  8
72_ARTEK_AKFURNITURE_D2SNAP
 10
0.573452
 20
-0.00478354
 30
0
  0
VERTEX
  8
72_ARTEK_AKFURNITURE_D2SNAP
 10
0.574607
 20
-0.00694463
 30
0
  0
VERTEX
  8
72_ARTEK_AKFURNITURE_D2SNAP
 10
0.576161
 20
-0.00883883
 30
0
  0
VERTEX
  8
72_ARTEK_AKFURNITURE_D2SNAP
 10
0.578055
 20
-0.0103934
 30
0
  0
VERTEX
  8
72_ARTEK_AKFURNITURE_D2SNAP
 10
0.580216
 20
-0.0115485
 30
0
  0
VERTEX
  8
72_ARTEK_AKFURNITURE_D2SNAP
 10
0.582561
 20
-0.0122598
 30
0
  0
VERTEX
  8
72_ARTEK_AKFURNITURE_D2SNAP
 10
0.585
 20
-0.0125
 30
0
  0
VERTEX
  8
72_ARTEK_AKFURNITURE_D2SNAP
 10
0.587439
 20
-0.0122598
 30
0
  0
VERTEX
  8
72_ARTEK_AKFURNITURE_D2SNAP
 10
0.589784
 20
-0.0115485
 30
0
  0
VERTEX
  8
72_ARTEK_AKFURNITURE_D2SNAP
 10
0.591945
 20
-0.0103934
 30
0
  0
VERTEX
  8
72_ARTEK_AKFURNITURE_D2SNAP
 10
0.593839
 20
-0.00883883
 30
0
  0
VERTEX
  8
72_ARTEK_AKFURNITURE_D2SNAP
 10
0.595393
 20
-0.00694463
 30
0
  0
VERTEX
  8
72_ARTEK_AKFURNITURE_D2SNAP
 10
0.596548
 20
-0.00478354
 30
0
  0
VERTEX
  8
72_ARTEK_AKFURNITURE_D2SNAP
 10
0.59726
 20
-0.00243863
 30
0
  0
VERTEX
  8
72_ARTEK_AKFURNITURE_D2SNAP
 10
0.5975
 20
-0
 30
0
  0
SEQEND
  0
POLYLINE
  8
72_ARTEK_AKFURNITURE_D2SNAP
 66
     1
 70
     0
 10
0.0
 20
0.0
 30
0.0
  0
VERTEX
  8
72_ARTEK_AKFURNITURE_D2SNAP
 10
0.567322
 20
-0.0176777
 30
0
  0
VERTEX
  8
72_ARTEK_AKFURNITURE_D2SNAP
 10
0.602678
 20
0.0176777
 30
0
  0
SEQEND
  0
POLYLINE
  8
72_ARTEK_AKFURNITURE_D2SNAP
 66
     1
 70
     0
 10
0.0
 20
0.0
 30
0.0
  0
VERTEX
  8
72_ARTEK_AKFURNITURE_D2SNAP
 10
0.567322
 20
0.0176777
 30
0
  0
VERTEX
  8
72_ARTEK_AKFURNITURE_D2SNAP
 10
0.602678
 20
-0.0176777
 30
0
  0
SEQEND
  0
POLYLINE
  8
72_ARTEK_AKFURNITURE_D2_CH_FOO
 66
     1
 70
     0
 10
0.0
 20
0.0
 30
0.0
  0
VERTEX
  8
72_ARTEK_AKFURNITURE_D2_CH_FOO
 10
1.154
 20
-0.110281
 30
0
  0
VERTEX
  8
72_ARTEK_AKFURNITURE_D2_CH_FOO
 10
1.15
 20
-0.110281
 30
0
  0
VERTEX
  8
72_ARTEK_AKFURNITURE_D2_CH_FOO
 10
1.15
 20
-0.0922813
 30
0
  0
VERTEX
  8
72_ARTEK_AKFURNITURE_D2_CH_FOO
 10
1.154
 20
-0.0922813
 30
0
  0
VERTEX
  8
72_ARTEK_AKFURNITURE_D2_CH_FOO
 10
1.154
 20
0.109422
 30
0
  0
VERTEX
  8
72_ARTEK_AKFURNITURE_D2_CH_FOO
 10
1.15
 20
0.109422
 30
0
  0
VERTEX
  8
72_ARTEK_AKFURNITURE_D2_CH_FOO
 10
1.15
 20
0.127422
 30
0
  0
VERTEX
  8
72_ARTEK_AKFURNITURE_D2_CH_FOO
 10
1.154
 20
0.127422
 30
0
  0
VERTEX
  8
72_ARTEK_AKFURNITURE_D2_CH_FOO
 10
1.154
 20
0.300233
 30
0
  0
VERTEX
  8
72_ARTEK_AKFURNITURE_D2_CH_FOO
 10
1.154
 20
0.300233
 30
0
  0
VERTEX
  8
72_ARTEK_AKFURNITURE_D2_CH_FOO
 10
1.15414
 20
0.298763
 30
0
  0
VERTEX
  8
72_ARTEK_AKFURNITURE_D2_CH_FOO
 10
1.15454
 20
0.297343
 30
0
  0
VERTEX
  8
72_ARTEK_AKFURNITURE_D2_CH_FOO
 10
1.1552
 20
0.296022
 30
0
  0
VERTEX
  8
72_ARTEK_AKFURNITURE_D2_CH_FOO
 10
1.15609
 20
0.294844
 30
0
  0
VERTEX
  8
72_ARTEK_AKFURNITURE_D2_CH_FOO
 10
1.15718
 20
0.293849
 30
0
  0
VERTEX
  8
72_ARTEK_AKFURNITURE_D2_CH_FOO
 10
1.15843
 20
0.293072
 30
0
  0
VERTEX
  8
72_ARTEK_AKFURNITURE_D2_CH_FOO
 10
1.15981
 20
0.292539
 30
0
  0
VERTEX
  8
72_ARTEK_AKFURNITURE_D2_CH_FOO
 10
1.16126
 20
0.292268
 30
0
  0
VERTEX
  8
72_ARTEK_AKFURNITURE_D2_CH_FOO
 10
1.16274
 20
0.292268
 30
0
  0
VERTEX
  8
72_ARTEK_AKFURNITURE_D2_CH_FOO
 10
1.16419
 20
0.292539
 30
0
  0
VERTEX
  8
72_ARTEK_AKFURNITURE_D2_CH_FOO
 10
1.16557
 20
0.293072
 30
0
  0
VERTEX
  8
72_ARTEK_AKFURNITURE_D2_CH_FOO
 10
1.16682
 20
0.293849
 30
0
  0
VERTEX
  8
72_ARTEK_AKFURNITURE_D2_CH_FOO
 10
1.16791
 20
0.294844
 30
0
  0
VERTEX
  8
72_ARTEK_AKFURNITURE_D2_CH_FOO
 10
1.1688
 20
0.296022
 30
0
  0
VERTEX
  8
72_ARTEK_AKFURNITURE_D2_CH_FOO
 10
1.16946
 20
0.297343
 30
0
  0
VERTEX
  8
72_ARTEK_AKFURNITURE_D2_CH_FOO
 10
1.16986
 20
0.298763
 30
0
  0
VERTEX
  8
72_ARTEK_AKFURNITURE_D2_CH_FOO
 10
1.17
 20
0.300233
 30
0
  0
VERTEX
  8
72_ARTEK_AKFURNITURE_D2_CH_FOO
 10
1.17
 20
-0.298767
 30
0
  0
VERTEX
  8
72_ARTEK_AKFURNITURE_D2_CH_FOO
 10
1.17
 20
-0.298767
 30
0
  0
VERTEX
  8
72_ARTEK_AKFURNITURE_D2_CH_FOO
 10
1.16986
 20
-0.297297
 30
0
  0
VERTEX
  8
72_ARTEK_AKFURNITURE_D2_CH_FOO
 10
1.16946
 20
-0.295877
 30
0
  0
VERTEX
  8
72_ARTEK_AKFURNITURE_D2_CH_FOO
 10
1.1688
 20
-0.294555
 30
0
  0
VERTEX
  8
72_ARTEK_AKFURNITURE_D2_CH_FOO
 10
1.16791
 20
-0.293377
 30
0
  0
VERTEX
  8
72_ARTEK_AKFURNITURE_D2_CH_FOO
 10
1.16682
 20
-0.292382
 30
0
  0
VERTEX
  8
72_ARTEK_AKFURNITURE_D2_CH_FOO
 10
1.16557
 20
-0.291605
 30
0
  0
VERTEX
  8
72_ARTEK_AKFURNITURE_D2_CH_FOO
 10
1.16419
 20
-0.291072
 30
0
  0
VERTEX
  8
72_ARTEK_AKFURNITURE_D2_CH_FOO
 10
1.16274
 20
-0.290801
 30
0
  0
VERTEX
  8
72_ARTEK_AKFURNITURE_D2_CH_FOO
 10
1.16126
 20
-0.290801
 30
0
  0
VERTEX
  8
72_ARTEK_AKFURNITURE_D2_CH_FOO
 10
1.15981
 20
-0.291072
 30
0
  0
VERTEX
  8
72_ARTEK_AKFURNITURE_D2_CH_FOO
 10
1.15843
 20
-0.291605
 30
0
  0
VERTEX
  8
72_ARTEK_AKFURNITURE_D2_CH_FOO
 10
1.15718
 20
-0.292382
 30
0
  0
VERTEX
  8
72_ARTEK_AKFURNITURE_D2_CH_FOO
 10
1.15609
 20
-0.293377
 30
0
  0
VERTEX
  8
72_ARTEK_AKFURNITURE_D2_CH_FOO
 10
1.1552
 20
-0.294555
 30
0
  0
VERTEX
  8
72_ARTEK_AKFURNITURE_D2_CH_FOO
 10
1.15454
 20
-0.295877
 30
0
  0
VERTEX
  8
72_ARTEK_AKFURNITURE_D2_CH_FOO
 10
1.15414
 20
-0.297297
 30
0
  0
VERTEX
  8
72_ARTEK_AKFURNITURE_D2_CH_FOO
 10
1.154
 20
-0.298767
 30
0
  0
VERTEX
  8
72_ARTEK_AKFURNITURE_D2_CH_FOO
 10
1.154
 20
-0.110281
 30
0
  0
SEQEND
  0
POLYLINE
  8
72_ARTEK_AKFURNITURE_D2_CH_FOO
 66
     1
 70
     0
 10
0.0
 20
0.0
 30
0.0
  0
VERTEX
  8
72_ARTEK_AKFURNITURE_D2_CH_FOO
 10
1.17
 20
0.315233
 30
0
  0
VERTEX
  8
72_ARTEK_AKFURNITURE_D2_CH_FOO
 10
1.17
 20
0.300233
 30
0
  0
VERTEX
  8
72_ARTEK_AKFURNITURE_D2_CH_FOO
 10
1.17
 20
0.300233
 30
0
  0
VERTEX
  8
72_ARTEK_AKFURNITURE_D2_CH_FOO
 10
1.16986
 20
0.298763
 30
0
  0
VERTEX
  8
72_ARTEK_AKFURNITURE_D2_CH_FOO
 10
1.16946
 20
0.297343
 30
0
  0
VERTEX
  8
72_ARTEK_AKFURNITURE_D2_CH_FOO
 10
1.1688
 20
0.296022
 30
0
  0
VERTEX
  8
72_ARTEK_AKFURNITURE_D2_CH_FOO
 10
1.16791
 20
0.294844
 30
0
  0
VERTEX
  8
72_ARTEK_AKFURNITURE_D2_CH_FOO
 10
1.16682
 20
0.293849
 30
0
  0
VERTEX
  8
72_ARTEK_AKFURNITURE_D2_CH_FOO
 10
1.16557
 20
0.293072
 30
0
  0
VERTEX
  8
72_ARTEK_AKFURNITURE_D2_CH_FOO
 10
1.16419
 20
0.292539
 30
0
  0
VERTEX
  8
72_ARTEK_AKFURNITURE_D2_CH_FOO
 10
1.16274
 20
0.292268
 30
0
  0
VERTEX
  8
72_ARTEK_AKFURNITURE_D2_CH_FOO
 10
1.16126
 20
0.292268
 30
0
  0
VERTEX
  8
72_ARTEK_AKFURNITURE_D2_CH_FOO
 10
1.15981
 20
0.292539
 30
0
  0
VERTEX
  8
72_ARTEK_AKFURNITURE_D2_CH_FOO
 10
1.15843
 20
0.293072
 30
0
  0
VERTEX
  8
72_ARTEK_AKFURNITURE_D2_CH_FOO
 10
1.15718
 20
0.293849
 30
0
  0
VERTEX
  8
72_ARTEK_AKFURNITURE_D2_CH_FOO
 10
1.15609
 20
0.294844
 30
0
  0
VERTEX
  8
72_ARTEK_AKFURNITURE_D2_CH_FOO
 10
1.1552
 20
0.296022
 30
0
  0
VERTEX
  8
72_ARTEK_AKFURNITURE_D2_CH_FOO
 10
1.15454
 20
0.297343
 30
0
  0
VERTEX
  8
72_ARTEK_AKFURNITURE_D2_CH_FOO
 10
1.15414
 20
0.298763
 30
0
  0
VERTEX
  8
72_ARTEK_AKFURNITURE_D2_CH_FOO
 10
1.154
 20
0.300233
 30
0
  0
VERTEX
  8
72_ARTEK_AKFURNITURE_D2_CH_FOO
 10
1.154
 20
0.315233
 30
0
  0
VERTEX
  8
72_ARTEK_AKFURNITURE_D2_CH_FOO
 10
1.154
 20
0.315233
 30
0
  0
VERTEX
  8
72_ARTEK_AKFURNITURE_D2_CH_FOO
 10
1.15414
 20
0.316703
 30
0
  0
VERTEX
  8
72_ARTEK_AKFURNITURE_D2_CH_FOO
 10
1.15454
 20
0.318123
 30
0
  0
VERTEX
  8
72_ARTEK_AKFURNITURE_D2_CH_FOO
 10
1.1552
 20
0.319445
 30
0
  0
VERTEX
  8
72_ARTEK_AKFURNITURE_D2_CH_FOO
 10
1.15609
 20
0.320623
 30
0
  0
VERTEX
  8
72_ARTEK_AKFURNITURE_D2_CH_FOO
 10
1.15718
 20
0.321618
 30
0
  0
VERTEX
  8
72_ARTEK_AKFURNITURE_D2_CH_FOO
 10
1.15843
 20
0.322395
 30
0
  0
VERTEX
  8
72_ARTEK_AKFURNITURE_D2_CH_FOO
 10
1.15981
 20
0.322928
 30
0
  0
VERTEX
  8
72_ARTEK_AKFURNITURE_D2_CH_FOO
 10
1.16126
 20
0.323199
 30
0
  0
VERTEX
  8
72_ARTEK_AKFURNITURE_D2_CH_FOO
 10
1.16274
 20
0.323199
 30
0
  0
VERTEX
  8
72_ARTEK_AKFURNITURE_D2_CH_FOO
 10
1.16419
 20
0.322928
 30
0
  0
VERTEX
  8
72_ARTEK_AKFURNITURE_D2_CH_FOO
 10
1.16557
 20
0.322395
 30
0
  0
VERTEX
  8
72_ARTEK_AKFURNITURE_D2_CH_FOO
 10
1.16682
 20
0.321618
 30
0
  0
VERTEX
  8
72_ARTEK_AKFURNITURE_D2_CH_FOO
 10
1.16791
 20
0.320623
 30
0
  0
VERTEX
  8
72_ARTEK_AKFURNITURE_D2_CH_FOO
 10
1.1688
 20
0.319445
 30
0
  0
VERTEX
  8
72_ARTEK_AKFURNITURE_D2_CH_FOO
 10
1.16946
 20
0.318123
 30
0
  0
VERTEX
  8
72_ARTEK_AKFURNITURE_D2_CH_FOO
 10
1.16986
 20
0.316703
 30
0
  0
VERTEX
  8
72_ARTEK_AKFURNITURE_D2_CH_FOO
 10
1.17
 20
0.315233
 30
0
  0
SEQEND
  0
POLYLINE
  8
72_ARTEK_AKFURNITURE_D2_CH_FOO
 66
     1
 70
     0
 10
0.0
 20
0.0
 30
0.0
  0
VERTEX
  8
72_ARTEK_AKFURNITURE_D2_CH_FOO
 10
1.15
 20
0.298733
 30
0
  0
VERTEX
  8
72_ARTEK_AKFURNITURE_D2_CH_FOO
 10
1.15
 20
0.316733
 30
0
  0
VERTEX
  8
72_ARTEK_AKFURNITURE_D2_CH_FOO
 10
1.154
 20
0.316733
 30
0
  0
VERTEX
  8
72_ARTEK_AKFURNITURE_D2_CH_FOO
 10
1.154
 20
0.298733
 30
0
  0
VERTEX
  8
72_ARTEK_AKFURNITURE_D2_CH_FOO
 10
1.15
 20
0.298733
 30
0
  0
SEQEND
  0
POLYLINE
  8
72_ARTEK_AKFURNITURE_D2_CH_FOO
 66
     1
 70
     0
 10
0.0
 20
0.0
 30
0.0
  0
VERTEX
  8
72_ARTEK_AKFURNITURE_D2_CH_FOO
 10
1.17
 20
-0.298767
 30
0
  0
VERTEX
  8
72_ARTEK_AKFURNITURE_D2_CH_FOO
 10
1.17
 20
-0.313767
 30
0
  0
VERTEX
  8
72_ARTEK_AKFURNITURE_D2_CH_FOO
 10
1.17
 20
-0.313767
 30
0
  0
VERTEX
  8
72_ARTEK_AKFURNITURE_D2_CH_FOO
 10
1.16986
 20
-0.315237
 30
0
  0
VERTEX
  8
72_ARTEK_AKFURNITURE_D2_CH_FOO
 10
1.16946
 20
-0.316657
 30
0
  0
VERTEX
  8
72_ARTEK_AKFURNITURE_D2_CH_FOO
 10
1.1688
 20
-0.317978
 30
0
  0
VERTEX
  8
72_ARTEK_AKFURNITURE_D2_CH_FOO
 10
1.16791
 20
-0.319156
 30
0
  0
VERTEX
  8
72_ARTEK_AKFURNITURE_D2_CH_FOO
 10
1.16682
 20
-0.320151
 30
0
  0
VERTEX
  8
72_ARTEK_AKFURNITURE_D2_CH_FOO
 10
1.16557
 20
-0.320928
 30
0
  0
VERTEX
  8
72_ARTEK_AKFURNITURE_D2_CH_FOO
 10
1.16419
 20
-0.321461
 30
0
  0
VERTEX
  8
72_ARTEK_AKFURNITURE_D2_CH_FOO
 10
1.16274
 20
-0.321732
 30
0
  0
VERTEX
  8
72_ARTEK_AKFURNITURE_D2_CH_FOO
 10
1.16126
 20
-0.321733
 30
0
  0
VERTEX
  8
72_ARTEK_AKFURNITURE_D2_CH_FOO
 10
1.15981
 20
-0.321461
 30
0
  0
VERTEX
  8
72_ARTEK_AKFURNITURE_D2_CH_FOO
 10
1.15843
 20
-0.320928
 30
0
  0
VERTEX
  8
72_ARTEK_AKFURNITURE_D2_CH_FOO
 10
1.15718
 20
-0.320151
 30
0
  0
VERTEX
  8
72_ARTEK_AKFURNITURE_D2_CH_FOO
 10
1.15609
 20
-0.319156
 30
0
  0
VERTEX
  8
72_ARTEK_AKFURNITURE_D2_CH_FOO
 10
1.1552
 20
-0.317978
 30
0
  0
VERTEX
  8
72_ARTEK_AKFURNITURE_D2_CH_FOO
 10
1.15454
 20
-0.316657
 30
0
  0
VERTEX
  8
72_ARTEK_AKFURNITURE_D2_CH_FOO
 10
1.15414
 20
-0.315237
 30
0
  0
VERTEX
  8
72_ARTEK_AKFURNITURE_D2_CH_FOO
 10
1.154
 20
-0.313767
 30
0
  0
VERTEX
  8
72_ARTEK_AKFURNITURE_D2_CH_FOO
 10
1.154
 20
-0.298767
 30
0
  0
VERTEX
  8
72_ARTEK_AKFURNITURE_D2_CH_FOO
 10
1.154
 20
-0.298767
 30
0
  0
VERTEX
  8
72_ARTEK_AKFURNITURE_D2_CH_FOO
 10
1.15414
 20
-0.297297
 30
0
  0
VERTEX
  8
72_ARTEK_AKFURNITURE_D2_CH_FOO
 10
1.15454
 20
-0.295877
 30
0
  0
VERTEX
  8
72_ARTEK_AKFURNITURE_D2_CH_FOO
 10
1.1552
 20
-0.294555
 30
0
  0
VERTEX
  8
72_ARTEK_AKFURNITURE_D2_CH_FOO
 10
1.15609
 20
-0.293377
 30
0
  0
VERTEX
  8
72_ARTEK_AKFURNITURE_D2_CH_FOO
 10
1.15718
 20
-0.292382
 30
0
  0
VERTEX
  8
72_ARTEK_AKFURNITURE_D2_CH_FOO
 10
1.15843
 20
-0.291605
 30
0
  0
VERTEX
  8
72_ARTEK_AKFURNITURE_D2_CH_FOO
 10
1.15981
 20
-0.291072
 30
0
  0
VERTEX
  8
72_ARTEK_AKFURNITURE_D2_CH_FOO
 10
1.16126
 20
-0.290801
 30
0
  0
VERTEX
  8
72_ARTEK_AKFURNITURE_D2_CH_FOO
 10
1.16274
 20
-0.290801
 30
0
  0
VERTEX
  8
72_ARTEK_AKFURNITURE_D2_CH_FOO
 10
1.16419
 20
-0.291072
 30
0
  0
VERTEX
  8
72_ARTEK_AKFURNITURE_D2_CH_FOO
 10
1.16557
 20
-0.291605
 30
0
  0
VERTEX
  8
72_ARTEK_AKFURNITURE_D2_CH_FOO
 10
1.16682
 20
-0.292382
 30
0
  0
VERTEX
  8
72_ARTEK_AKFURNITURE_D2_CH_FOO
 10
1.16791
 20
-0.293377
 30
0
  0
VERTEX
  8
72_ARTEK_AKFURNITURE_D2_CH_FOO
 10
1.1688
 20
-0.294555
 30
0
  0
VERTEX
  8
72_ARTEK_AKFURNITURE_D2_CH_FOO
 10
1.16946
 20
-0.295877
 30
0
  0
VERTEX
  8
72_ARTEK_AKFURNITURE_D2_CH_FOO
 10
1.16986
 20
-0.297297
 30
0
  0
VERTEX
  8
72_ARTEK_AKFURNITURE_D2_CH_FOO
 10
1.17
 20
-0.298767
 30
0
  0
SEQEND
  0
POLYLINE
  8
72_ARTEK_AKFURNITURE_D2_CH_FOO
 66
     1
 70
     0
 10
0.0
 20
0.0
 30
0.0
  0
VERTEX
  8
72_ARTEK_AKFURNITURE_D2_CH_FOO
 10
1.15
 20
-0.315267
 30
0
  0
VERTEX
  8
72_ARTEK_AKFURNITURE_D2_CH_FOO
 10
1.15
 20
-0.297267
 30
0
  0
VERTEX
  8
72_ARTEK_AKFURNITURE_D2_CH_FOO
 10
1.154
 20
-0.297267
 30
0
  0
VERTEX
  8
72_ARTEK_AKFURNITURE_D2_CH_FOO
 10
1.154
 20
-0.315267
 30
0
  0
VERTEX
  8
72_ARTEK_AKFURNITURE_D2_CH_FOO
 10
1.15
 20
-0.315267
 30
0
  0
SEQEND
  0
POLYLINE
  8
72_ARTEK_AKFURNITURE_D2_CH_FOO
 66
     1
 70
     0
 10
0.0
 20
0.0
 30
0.0
  0
VERTEX
  8
72_ARTEK_AKFURNITURE_D2_CH_FOO
 10
0.016
 20
-0.110281
 30
0
  0
VERTEX
  8
72_ARTEK_AKFURNITURE_D2_CH_FOO
 10
0.02
 20
-0.110281
 30
0
  0
VERTEX
  8
72_ARTEK_AKFURNITURE_D2_CH_FOO
 10
0.02
 20
-0.0922813
 30
0
  0
VERTEX
  8
72_ARTEK_AKFURNITURE_D2_CH_FOO
 10
0.016
 20
-0.0922813
 30
0
  0
VERTEX
  8
72_ARTEK_AKFURNITURE_D2_CH_FOO
 10
0.016
 20
0.109422
 30
0
  0
VERTEX
  8
72_ARTEK_AKFURNITURE_D2_CH_FOO
 10
0.02
 20
0.109422
 30
0
  0
VERTEX
  8
72_ARTEK_AKFURNITURE_D2_CH_FOO
 10
0.02
 20
0.127422
 30
0
  0
VERTEX
  8
72_ARTEK_AKFURNITURE_D2_CH_FOO
 10
0.016
 20
0.127422
 30
0
  0
VERTEX
  8
72_ARTEK_AKFURNITURE_D2_CH_FOO
 10
0.016
 20
0.300233
 30
0
  0
VERTEX
  8
72_ARTEK_AKFURNITURE_D2_CH_FOO
 10
0.016
 20
0.300233
 30
0
  0
VERTEX
  8
72_ARTEK_AKFURNITURE_D2_CH_FOO
 10
0.0158638
 20
0.298763
 30
0
  0
VERTEX
  8
72_ARTEK_AKFURNITURE_D2_CH_FOO
 10
0.0154598
 20
0.297343
 30
0
  0
VERTEX
  8
72_ARTEK_AKFURNITURE_D2_CH_FOO
 10
0.0148017
 20
0.296022
 30
0
  0
VERTEX
  8
72_ARTEK_AKFURNITURE_D2_CH_FOO
 10
0.013912
 20
0.294844
 30
0
  0
VERTEX
  8
72_ARTEK_AKFURNITURE_D2_CH_FOO
 10
0.012821
 20
0.293849
 30
0
  0
VERTEX
  8
72_ARTEK_AKFURNITURE_D2_CH_FOO
 10
0.0115659
 20
0.293072
 30
0
  0
VERTEX
  8
72_ARTEK_AKFURNITURE_D2_CH_FOO
 10
0.0101893
 20
0.292539
 30
0
  0
VERTEX
  8
72_ARTEK_AKFURNITURE_D2_CH_FOO
 10
0.00873812
 20
0.292268
 30
0
  0
VERTEX
  8
72_ARTEK_AKFURNITURE_D2_CH_FOO
 10
0.00726183
 20
0.292268
 30
0
  0
VERTEX
  8
72_ARTEK_AKFURNITURE_D2_CH_FOO
 10
0.00581067
 20
0.292539
 30
0
  0
VERTEX
  8
72_ARTEK_AKFURNITURE_D2_CH_FOO
 10
0.00443407
 20
0.293072
 30
0
  0
VERTEX
  8
72_ARTEK_AKFURNITURE_D2_CH_FOO
 10
0.00317891
 20
0.293849
 30
0
  0
VERTEX
  8
72_ARTEK_AKFURNITURE_D2_CH_FOO
 10
0.00208792
 20
0.294844
 30
0
  0
VERTEX
  8
72_ARTEK_AKFURNITURE_D2_CH_FOO
 10
0.00119826
 20
0.296022
 30
0
  0
VERTEX
  8
72_ARTEK_AKFURNITURE_D2_CH_FOO
 10
0.000540229
 20
0.297343
 30
0
  0
VERTEX
  8
72_ARTEK_AKFURNITURE_D2_CH_FOO
 10
0.000136232
 20
0.298763
 30
0
  0
VERTEX
  8
72_ARTEK_AKFURNITURE_D2_CH_FOO
 10
2.67029e-008
 20
0.300233
 30
0
  0
VERTEX
  8
72_ARTEK_AKFURNITURE_D2_CH_FOO
 10
2.67029e-008
 20
-0.298767
 30
0
  0
VERTEX
  8
72_ARTEK_AKFURNITURE_D2_CH_FOO
 10
2.67029e-008
 20
-0.298767
 30
0
  0
VERTEX
  8
72_ARTEK_AKFURNITURE_D2_CH_FOO
 10
0.000136232
 20
-0.297297
 30
0
  0
VERTEX
  8
72_ARTEK_AKFURNITURE_D2_CH_FOO
 10
0.000540231
 20
-0.295877
 30
0
  0
VERTEX
  8
72_ARTEK_AKFURNITURE_D2_CH_FOO
 10
0.00119827
 20
-0.294555
 30
0
  0
VERTEX
  8
72_ARTEK_AKFURNITURE_D2_CH_FOO
 10
0.00208793
 20
-0.293377
 30
0
  0
VERTEX
  8
72_ARTEK_AKFURNITURE_D2_CH_FOO
 10
0.00317892
 20
-0.292382
 30
0
  0
VERTEX
  8
72_ARTEK_AKFURNITURE_D2_CH_FOO
 10
0.00443409
 20
-0.291605
 30
0
  0
VERTEX
  8
72_ARTEK_AKFURNITURE_D2_CH_FOO
 10
0.00581069
 20
-0.291072
 30
0
  0
VERTEX
  8
72_ARTEK_AKFURNITURE_D2_CH_FOO
 10
0.00726185
 20
-0.290801
 30
0
  0
VERTEX
  8
72_ARTEK_AKFURNITURE_D2_CH_FOO
 10
0.00873815
 20
-0.290801
 30
0
  0
VERTEX
  8
72_ARTEK_AKFURNITURE_D2_CH_FOO
 10
0.0101893
 20
-0.291072
 30
0
  0
VERTEX
  8
72_ARTEK_AKFURNITURE_D2_CH_FOO
 10
0.0115659
 20
-0.291605
 30
0
  0
VERTEX
  8
72_ARTEK_AKFURNITURE_D2_CH_FOO
 10
0.0128211
 20
-0.292382
 30
0
  0
VERTEX
  8
72_ARTEK_AKFURNITURE_D2_CH_FOO
 10
0.0139121
 20
-0.293377
 30
0
  0
VERTEX
  8
72_ARTEK_AKFURNITURE_D2_CH_FOO
 10
0.0148017
 20
-0.294555
 30
0
  0
VERTEX
  8
72_ARTEK_AKFURNITURE_D2_CH_FOO
 10
0.0154598
 20
-0.295877
 30
0
  0
VERTEX
  8
72_ARTEK_AKFURNITURE_D2_CH_FOO
 10
0.0158638
 20
-0.297297
 30
0
  0
VERTEX
  8
72_ARTEK_AKFURNITURE_D2_CH_FOO
 10
0.016
 20
-0.298767
 30
0
  0
VERTEX
  8
72_ARTEK_AKFURNITURE_D2_CH_FOO
 10
0.016
 20
-0.110281
 30
0
  0
SEQEND
  0
POLYLINE
  8
72_ARTEK_AKFURNITURE_D2_CH_FOO
 66
     1
 70
     0
 10
0.0
 20
0.0
 30
0.0
  0
VERTEX
  8
72_ARTEK_AKFURNITURE_D2_CH_FOO
 10
2.67029e-008
 20
0.315233
 30
0
  0
VERTEX
  8
72_ARTEK_AKFURNITURE_D2_CH_FOO
 10
2.67029e-008
 20
0.300233
 30
0
  0
VERTEX
  8
72_ARTEK_AKFURNITURE_D2_CH_FOO
 10
2.67029e-008
 20
0.300233
 30
0
  0
VERTEX
  8
72_ARTEK_AKFURNITURE_D2_CH_FOO
 10
0.000136232
 20
0.298763
 30
0
  0
VERTEX
  8
72_ARTEK_AKFURNITURE_D2_CH_FOO
 10
0.000540229
 20
0.297343
 30
0
  0
VERTEX
  8
72_ARTEK_AKFURNITURE_D2_CH_FOO
 10
0.00119826
 20
0.296022
 30
0
  0
VERTEX
  8
72_ARTEK_AKFURNITURE_D2_CH_FOO
 10
0.00208792
 20
0.294844
 30
0
  0
VERTEX
  8
72_ARTEK_AKFURNITURE_D2_CH_FOO
 10
0.00317891
 20
0.293849
 30
0
  0
VERTEX
  8
72_ARTEK_AKFURNITURE_D2_CH_FOO
 10
0.00443407
 20
0.293072
 30
0
  0
VERTEX
  8
72_ARTEK_AKFURNITURE_D2_CH_FOO
 10
0.00581067
 20
0.292539
 30
0
  0
VERTEX
  8
72_ARTEK_AKFURNITURE_D2_CH_FOO
 10
0.00726183
 20
0.292268
 30
0
  0
VERTEX
  8
72_ARTEK_AKFURNITURE_D2_CH_FOO
 10
0.00873812
 20
0.292268
 30
0
  0
VERTEX
  8
72_ARTEK_AKFURNITURE_D2_CH_FOO
 10
0.0101893
 20
0.292539
 30
0
  0
VERTEX
  8
72_ARTEK_AKFURNITURE_D2_CH_FOO
 10
0.0115659
 20
0.293072
 30
0
  0
VERTEX
  8
72_ARTEK_AKFURNITURE_D2_CH_FOO
 10
0.012821
 20
0.293849
 30
0
  0
VERTEX
  8
72_ARTEK_AKFURNITURE_D2_CH_FOO
 10
0.013912
 20
0.294844
 30
0
  0
VERTEX
  8
72_ARTEK_AKFURNITURE_D2_CH_FOO
 10
0.0148017
 20
0.296022
 30
0
  0
VERTEX
  8
72_ARTEK_AKFURNITURE_D2_CH_FOO
 10
0.0154598
 20
0.297343
 30
0
  0
VERTEX
  8
72_ARTEK_AKFURNITURE_D2_CH_FOO
 10
0.0158638
 20
0.298763
 30
0
  0
VERTEX
  8
72_ARTEK_AKFURNITURE_D2_CH_FOO
 10
0.016
 20
0.300233
 30
0
  0
VERTEX
  8
72_ARTEK_AKFURNITURE_D2_CH_FOO
 10
0.016
 20
0.315233
 30
0
  0
VERTEX
  8
72_ARTEK_AKFURNITURE_D2_CH_FOO
 10
0.016
 20
0.315233
 30
0
  0
VERTEX
  8
72_ARTEK_AKFURNITURE_D2_CH_FOO
 10
0.0158638
 20
0.316703
 30
0
  0
VERTEX
  8
72_ARTEK_AKFURNITURE_D2_CH_FOO
 10
0.0154598
 20
0.318123
 30
0
  0
VERTEX
  8
72_ARTEK_AKFURNITURE_D2_CH_FOO
 10
0.0148017
 20
0.319445
 30
0
  0
VERTEX
  8
72_ARTEK_AKFURNITURE_D2_CH_FOO
 10
0.0139121
 20
0.320623
 30
0
  0
VERTEX
  8
72_ARTEK_AKFURNITURE_D2_CH_FOO
 10
0.0128211
 20
0.321618
 30
0
  0
VERTEX
  8
72_ARTEK_AKFURNITURE_D2_CH_FOO
 10
0.0115659
 20
0.322395
 30
0
  0
VERTEX
  8
72_ARTEK_AKFURNITURE_D2_CH_FOO
 10
0.0101893
 20
0.322928
 30
0
  0
VERTEX
  8
72_ARTEK_AKFURNITURE_D2_CH_FOO
 10
0.00873815
 20
0.323199
 30
0
  0
VERTEX
  8
72_ARTEK_AKFURNITURE_D2_CH_FOO
 10
0.00726185
 20
0.323199
 30
0
  0
VERTEX
  8
72_ARTEK_AKFURNITURE_D2_CH_FOO
 10
0.00581069
 20
0.322928
 30
0
  0
VERTEX
  8
72_ARTEK_AKFURNITURE_D2_CH_FOO
 10
0.00443409
 20
0.322395
 30
0
  0
VERTEX
  8
72_ARTEK_AKFURNITURE_D2_CH_FOO
 10
0.00317892
 20
0.321618
 30
0
  0
VERTEX
  8
72_ARTEK_AKFURNITURE_D2_CH_FOO
 10
0.00208793
 20
0.320623
 30
0
  0
VERTEX
  8
72_ARTEK_AKFURNITURE_D2_CH_FOO
 10
0.00119827
 20
0.319445
 30
0
  0
VERTEX
  8
72_ARTEK_AKFURNITURE_D2_CH_FOO
 10
0.000540231
 20
0.318123
 30
0
  0
VERTEX
  8
72_ARTEK_AKFURNITURE_D2_CH_FOO
 10
0.000136232
 20
0.316703
 30
0
  0
VERTEX
  8
72_ARTEK_AKFURNITURE_D2_CH_FOO
 10
2.67029e-008
 20
0.315233
 30
0
  0
SEQEND
  0
POLYLINE
  8
72_ARTEK_AKFURNITURE_D2_CH_FOO
 66
     1
 70
     0
 10
0.0
 20
0.0
 30
0.0
  0
VERTEX
  8
72_ARTEK_AKFURNITURE_D2_CH_FOO
 10
0.02
 20
0.298733
 30
0
  0
VERTEX
  8
72_ARTEK_AKFURNITURE_D2_CH_FOO
 10
0.02
 20
0.316733
 30
0
  0
VERTEX
  8
72_ARTEK_AKFURNITURE_D2_CH_FOO
 10
0.016
 20
0.316733
 30
0
  0
VERTEX
  8
72_ARTEK_AKFURNITURE_D2_CH_FOO
 10
0.016
 20
0.298733
 30
0
  0
VERTEX
  8
72_ARTEK_AKFURNITURE_D2_CH_FOO
 10
0.02
 20
0.298733
 30
0
  0
SEQEND
  0
POLYLINE
  8
72_ARTEK_AKFURNITURE_D2_CH_FOO
 66
     1
 70
     0
 10
0.0
 20
0.0
 30
0.0
  0
VERTEX
  8
72_ARTEK_AKFURNITURE_D2_CH_FOO
 10
2.67029e-008
 20
-0.298767
 30
0
  0
VERTEX
  8
72_ARTEK_AKFURNITURE_D2_CH_FOO
 10
2.67029e-008
 20
-0.313767
 30
0
  0
VERTEX
  8
72_ARTEK_AKFURNITURE_D2_CH_FOO
 10
2.67029e-008
 20
-0.313767
 30
0
  0
VERTEX
  8
72_ARTEK_AKFURNITURE_D2_CH_FOO
 10
0.000136232
 20
-0.315237
 30
0
  0
VERTEX
  8
72_ARTEK_AKFURNITURE_D2_CH_FOO
 10
0.000540229
 20
-0.316657
 30
0
  0
VERTEX
  8
72_ARTEK_AKFURNITURE_D2_CH_FOO
 10
0.00119826
 20
-0.317978
 30
0
  0
VERTEX
  8
72_ARTEK_AKFURNITURE_D2_CH_FOO
 10
0.00208792
 20
-0.319156
 30
0
  0
VERTEX
  8
72_ARTEK_AKFURNITURE_D2_CH_FOO
 10
0.00317891
 20
-0.320151
 30
0
  0
VERTEX
  8
72_ARTEK_AKFURNITURE_D2_CH_FOO
 10
0.00443407
 20
-0.320928
 30
0
  0
VERTEX
  8
72_ARTEK_AKFURNITURE_D2_CH_FOO
 10
0.00581067
 20
-0.321461
 30
0
  0
VERTEX
  8
72_ARTEK_AKFURNITURE_D2_CH_FOO
 10
0.00726183
 20
-0.321732
 30
0
  0
VERTEX
  8
72_ARTEK_AKFURNITURE_D2_CH_FOO
 10
0.00873812
 20
-0.321733
 30
0
  0
VERTEX
  8
72_ARTEK_AKFURNITURE_D2_CH_FOO
 10
0.0101893
 20
-0.321461
 30
0
  0
VERTEX
  8
72_ARTEK_AKFURNITURE_D2_CH_FOO
 10
0.0115659
 20
-0.320928
 30
0
  0
VERTEX
  8
72_ARTEK_AKFURNITURE_D2_CH_FOO
 10
0.012821
 20
-0.320151
 30
0
  0
VERTEX
  8
72_ARTEK_AKFURNITURE_D2_CH_FOO
 10
0.013912
 20
-0.319156
 30
0
  0
VERTEX
  8
72_ARTEK_AKFURNITURE_D2_CH_FOO
 10
0.0148017
 20
-0.317978
 30
0
  0
VERTEX
  8
72_ARTEK_AKFURNITURE_D2_CH_FOO
 10
0.0154598
 20
-0.316657
 30
0
  0
VERTEX
  8
72_ARTEK_AKFURNITURE_D2_CH_FOO
 10
0.0158638
 20
-0.315237
 30
0
  0
VERTEX
  8
72_ARTEK_AKFURNITURE_D2_CH_FOO
 10
0.016
 20
-0.313767
 30
0
  0
VERTEX
  8
72_ARTEK_AKFURNITURE_D2_CH_FOO
 10
0.016
 20
-0.298767
 30
0
  0
VERTEX
  8
72_ARTEK_AKFURNITURE_D2_CH_FOO
 10
0.016
 20
-0.298767
 30
0
  0
VERTEX
  8
72_ARTEK_AKFURNITURE_D2_CH_FOO
 10
0.0158638
 20
-0.297297
 30
0
  0
VERTEX
  8
72_ARTEK_AKFURNITURE_D2_CH_FOO
 10
0.0154598
 20
-0.295877
 30
0
  0
VERTEX
  8
72_ARTEK_AKFURNITURE_D2_CH_FOO
 10
0.0148017
 20
-0.294555
 30
0
  0
VERTEX
  8
72_ARTEK_AKFURNITURE_D2_CH_FOO
 10
0.0139121
 20
-0.293377
 30
0
  0
VERTEX
  8
72_ARTEK_AKFURNITURE_D2_CH_FOO
 10
0.0128211
 20
-0.292382
 30
0
  0
VERTEX
  8
72_ARTEK_AKFURNITURE_D2_CH_FOO
 10
0.0115659
 20
-0.291605
 30
0
  0
VERTEX
  8
72_ARTEK_AKFURNITURE_D2_CH_FOO
 10
0.0101893
 20
-0.291072
 30
0
  0
VERTEX
  8
72_ARTEK_AKFURNITURE_D2_CH_FOO
 10
0.00873815
 20
-0.290801
 30
0
  0
VERTEX
  8
72_ARTEK_AKFURNITURE_D2_CH_FOO
 10
0.00726185
 20
-0.290801
 30
0
  0
VERTEX
  8
72_ARTEK_AKFURNITURE_D2_CH_FOO
 10
0.00581069
 20
-0.291072
 30
0
  0
VERTEX
  8
72_ARTEK_AKFURNITURE_D2_CH_FOO
 10
0.00443409
 20
-0.291605
 30
0
  0
VERTEX
  8
72_ARTEK_AKFURNITURE_D2_CH_FOO
 10
0.00317892
 20
-0.292382
 30
0
  0
VERTEX
  8
72_ARTEK_AKFURNITURE_D2_CH_FOO
 10
0.00208793
 20
-0.293377
 30
0
  0
VERTEX
  8
72_ARTEK_AKFURNITURE_D2_CH_FOO
 10
0.00119827
 20
-0.294555
 30
0
  0
VERTEX
  8
72_ARTEK_AKFURNITURE_D2_CH_FOO
 10
0.000540231
 20
-0.295877
 30
0
  0
VERTEX
  8
72_ARTEK_AKFURNITURE_D2_CH_FOO
 10
0.000136232
 20
-0.297297
 30
0
  0
VERTEX
  8
72_ARTEK_AKFURNITURE_D2_CH_FOO
 10
2.67029e-008
 20
-0.298767
 30
0
  0
SEQEND
  0
POLYLINE
  8
72_ARTEK_AKFURNITURE_D2_CH_FOO
 66
     1
 70
     0
 10
0.0
 20
0.0
 30
0.0
  0
VERTEX
  8
72_ARTEK_AKFURNITURE_D2_CH_FOO
 10
0.02
 20
-0.315267
 30
0
  0
VERTEX
  8
72_ARTEK_AKFURNITURE_D2_CH_FOO
 10
0.02
 20
-0.297267
 30
0
  0
VERTEX
  8
72_ARTEK_AKFURNITURE_D2_CH_FOO
 10
0.016
 20
-0.297267
 30
0
  0
VERTEX
  8
72_ARTEK_AKFURNITURE_D2_CH_FOO
 10
0.016
 20
-0.315267
 30
0
  0
VERTEX
  8
72_ARTEK_AKFURNITURE_D2_CH_FOO
 10
0.02
 20
-0.315267
 30
0
  0
SEQEND
  0
POLYLINE
  8
72_ARTEK_AKFURNITURE_D2SNAP
 66
     1
 70
     0
 10
0.0
 20
0.0
 30
0.0
  0
VERTEX
  8
72_ARTEK_AKFURNITURE_D2SNAP
 10
0.5975
 20
-0
 30
0
  0
VERTEX
  8
72_ARTEK_AKFURNITURE_D2SNAP
 10
0.59726
 20
0.00243863
 30
0
  0
VERTEX
  8
72_ARTEK_AKFURNITURE_D2SNAP
 10
0.596548
 20
0.00478354
 30
0
  0
VERTEX
  8
72_ARTEK_AKFURNITURE_D2SNAP
 10
0.595393
 20
0.00694463
 30
0
  0
VERTEX
  8
72_ARTEK_AKFURNITURE_D2SNAP
 10
0.593839
 20
0.00883883
 30
0
  0
VERTEX
  8
72_ARTEK_AKFURNITURE_D2SNAP
 10
0.591945
 20
0.0103934
 30
0
  0
VERTEX
  8
72_ARTEK_AKFURNITURE_D2SNAP
 10
0.589784
 20
0.0115485
 30
0
  0
VERTEX
  8
72_ARTEK_AKFURNITURE_D2SNAP
 10
0.587439
 20
0.0122598
 30
0
  0
VERTEX
  8
72_ARTEK_AKFURNITURE_D2SNAP
 10
0.585
 20
0.0125
 30
0
  0
VERTEX
  8
72_ARTEK_AKFURNITURE_D2SNAP
 10
0.582561
 20
0.0122598
 30
0
  0
VERTEX
  8
72_ARTEK_AKFURNITURE_D2SNAP
 10
0.580216
 20
0.0115485
 30
0
  0
VERTEX
  8
72_ARTEK_AKFURNITURE_D2SNAP
 10
0.578055
 20
0.0103934
 30
0
  0
VERTEX
  8
72_ARTEK_AKFURNITURE_D2SNAP
 10
0.576161
 20
0.00883883
 30
0
  0
VERTEX
  8
72_ARTEK_AKFURNITURE_D2SNAP
 10
0.574607
 20
0.00694463
 30
0
  0
VERTEX
  8
72_ARTEK_AKFURNITURE_D2SNAP
 10
0.573452
 20
0.00478354
 30
0
  0
VERTEX
  8
72_ARTEK_AKFURNITURE_D2SNAP
 10
0.57274
 20
0.00243863
 30
0
  0
VERTEX
  8
72_ARTEK_AKFURNITURE_D2SNAP
 10
0.5725
 20
3.15316e-018
 30
0
  0
VERTEX
  8
72_ARTEK_AKFURNITURE_D2SNAP
 10
0.57274
 20
-0.00243863
 30
0
  0
VERTEX
  8
72_ARTEK_AKFURNITURE_D2SNAP
 10
0.573452
 20
-0.00478354
 30
0
  0
VERTEX
  8
72_ARTEK_AKFURNITURE_D2SNAP
 10
0.574607
 20
-0.00694463
 30
0
  0
VERTEX
  8
72_ARTEK_AKFURNITURE_D2SNAP
 10
0.576161
 20
-0.00883883
 30
0
  0
VERTEX
  8
72_ARTEK_AKFURNITURE_D2SNAP
 10
0.578055
 20
-0.0103934
 30
0
  0
VERTEX
  8
72_ARTEK_AKFURNITURE_D2SNAP
 10
0.580216
 20
-0.0115485
 30
0
  0
VERTEX
  8
72_ARTEK_AKFURNITURE_D2SNAP
 10
0.582561
 20
-0.0122598
 30
0
  0
VERTEX
  8
72_ARTEK_AKFURNITURE_D2SNAP
 10
0.585
 20
-0.0125
 30
0
  0
VERTEX
  8
72_ARTEK_AKFURNITURE_D2SNAP
 10
0.587439
 20
-0.0122598
 30
0
  0
VERTEX
  8
72_ARTEK_AKFURNITURE_D2SNAP
 10
0.589784
 20
-0.0115485
 30
0
  0
VERTEX
  8
72_ARTEK_AKFURNITURE_D2SNAP
 10
0.591945
 20
-0.0103934
 30
0
  0
VERTEX
  8
72_ARTEK_AKFURNITURE_D2SNAP
 10
0.593839
 20
-0.00883883
 30
0
  0
VERTEX
  8
72_ARTEK_AKFURNITURE_D2SNAP
 10
0.595393
 20
-0.00694463
 30
0
  0
VERTEX
  8
72_ARTEK_AKFURNITURE_D2SNAP
 10
0.596548
 20
-0.00478354
 30
0
  0
VERTEX
  8
72_ARTEK_AKFURNITURE_D2SNAP
 10
0.59726
 20
-0.00243863
 30
0
  0
VERTEX
  8
72_ARTEK_AKFURNITURE_D2SNAP
 10
0.5975
 20
-0
 30
0
  0
SEQEND
  0
POLYLINE
  8
72_ARTEK_AKFURNITURE_D2SNAP
 66
     1
 70
     0
 10
0.0
 20
0.0
 30
0.0
  0
VERTEX
  8
72_ARTEK_AKFURNITURE_D2SNAP
 10
0.567322
 20
-0.0176777
 30
0
  0
VERTEX
  8
72_ARTEK_AKFURNITURE_D2SNAP
 10
0.602678
 20
0.0176777
 30
0
  0
SEQEND
  0
POLYLINE
  8
72_ARTEK_AKFURNITURE_D2SNAP
 66
     1
 70
     0
 10
0.0
 20
0.0
 30
0.0
  0
VERTEX
  8
72_ARTEK_AKFURNITURE_D2SNAP
 10
0.567322
 20
0.0176777
 30
0
  0
VERTEX
  8
72_ARTEK_AKFURNITURE_D2SNAP
 10
0.602678
 20
-0.0176777
 30
0
  0
SEQEND
  0
POLYLINE
  8
72_ARTEK_AKFURNITURE_D2_CH_SEA
 66
     1
 70
     0
 10
0.0
 20
0.0
 30
0.0
  0
VERTEX
  8
72_ARTEK_AKFURNITURE_D2_CH_SEA
 10
0.585
 20
-0.348269
 30
0
  0
VERTEX
  8
72_ARTEK_AKFURNITURE_D2_CH_SEA
 10
0.585
 20
0.0844373
 30
0
  0
VERTEX
  8
72_ARTEK_AKFURNITURE_D2_CH_SEA
 10
0.585
 20
0.138526
 30
0
  0
VERTEX
  8
72_ARTEK_AKFURNITURE_D2_CH_SEA
 10
0.585
 20
0.141906
 30
0
  0
VERTEX
  8
72_ARTEK_AKFURNITURE_D2_CH_SEA
 10
0.585
 20
0.142751
 30
0
  0
VERTEX
  8
72_ARTEK_AKFURNITURE_D2_CH_SEA
 10
0.584586
 20
0.142791
 30
0
  0
VERTEX
  8
72_ARTEK_AKFURNITURE_D2_CH_SEA
 10
0.583423
 20
0.142055
 30
0
  0
VERTEX
  8
72_ARTEK_AKFURNITURE_D2_CH_SEA
 10
0.578764
 20
0.140358
 30
0
  0
VERTEX
  8
72_ARTEK_AKFURNITURE_D2_CH_SEA
 10
0.575378
 20
0.139651
 30
0
  0
VERTEX
  8
72_ARTEK_AKFURNITURE_D2_CH_SEA
 10
0.570717
 20
0.139143
 30
0
  0
VERTEX
  8
72_ARTEK_AKFURNITURE_D2_CH_SEA
 10
0.565294
 20
0.138867
 30
0
  0
VERTEX
  8
72_ARTEK_AKFURNITURE_D2_CH_SEA
 10
0.561524
 20
0.138863
 30
0
  0
VERTEX
  8
72_ARTEK_AKFURNITURE_D2_CH_SEA
 10
0.556024
 20
0.138837
 30
0
  0
VERTEX
  8
72_ARTEK_AKFURNITURE_D2_CH_SEA
 10
0.547919
 20
0.138772
 30
0
  0
VERTEX
  8
72_ARTEK_AKFURNITURE_D2_CH_SEA
 10
0.542985
 20
0.138726
 30
0
  0
VERTEX
  8
72_ARTEK_AKFURNITURE_D2_CH_SEA
 10
0.535814
 20
0.138648
 30
0
  0
VERTEX
  8
72_ARTEK_AKFURNITURE_D2_CH_SEA
 10
0.518933
 20
0.138452
 30
0
  0
VERTEX
  8
72_ARTEK_AKFURNITURE_D2_CH_SEA
 10
0.509935
 20
0.13835
 30
0
  0
VERTEX
  8
72_ARTEK_AKFURNITURE_D2_CH_SEA
 10
0.499804
 20
0.13824
 30
0
  0
VERTEX
  8
72_ARTEK_AKFURNITURE_D2_CH_SEA
 10
0.493669
 20
0.138177
 30
0
  0
VERTEX
  8
72_ARTEK_AKFURNITURE_D2_CH_SEA
 10
0.486166
 20
0.138103
 30
0
  0
VERTEX
  8
72_ARTEK_AKFURNITURE_D2_CH_SEA
 10
0.477296
 20
0.138019
 30
0
  0
VERTEX
  8
72_ARTEK_AKFURNITURE_D2_CH_SEA
 10
0.467088
 20
0.137925
 30
0
  0
VERTEX
  8
72_ARTEK_AKFURNITURE_D2_CH_SEA
 10
0.38217
 20
0.137425
 30
0
  0
VERTEX
  8
72_ARTEK_AKFURNITURE_D2_CH_SEA
 10
0.373
 20
0.137399
 30
0
  0
VERTEX
  8
72_ARTEK_AKFURNITURE_D2_CH_SEA
 10
0.365391
 20
0.137379
 30
0
  0
VERTEX
  8
72_ARTEK_AKFURNITURE_D2_CH_SEA
 10
0.359345
 20
0.137366
 30
0
  0
VERTEX
  8
72_ARTEK_AKFURNITURE_D2_CH_SEA
 10
0.354566
 20
0.137359
 30
0
  0
VERTEX
  8
72_ARTEK_AKFURNITURE_D2_CH_SEA
 10
0.344238
 20
0.137349
 30
0
  0
VERTEX
  8
72_ARTEK_AKFURNITURE_D2_CH_SEA
 10
0.332185
 20
0.137346
 30
0
  0
VERTEX
  8
72_ARTEK_AKFURNITURE_D2_CH_SEA
 10
0.32475
 20
0.137345
 30
0
  0
VERTEX
  8
72_ARTEK_AKFURNITURE_D2_CH_SEA
 10
0.31614
 20
0.137344
 30
0
  0
VERTEX
  8
72_ARTEK_AKFURNITURE_D2_CH_SEA
 10
0.296106
 20
0.137344
 30
0
  0
VERTEX
  8
72_ARTEK_AKFURNITURE_D2_CH_SEA
 10
0.28697
 20
0.137345
 30
0
  0
VERTEX
  8
72_ARTEK_AKFURNITURE_D2_CH_SEA
 10
0.279007
 20
0.137345
 30
0
  0
VERTEX
  8
72_ARTEK_AKFURNITURE_D2_CH_SEA
 10
0.266293
 20
0.137348
 30
0
  0
VERTEX
  8
72_ARTEK_AKFURNITURE_D2_CH_SEA
 10
0.245516
 20
0.137372
 30
0
  0
VERTEX
  8
72_ARTEK_AKFURNITURE_D2_CH_SEA
 10
0.238609
 20
0.137389
 30
0
  0
VERTEX
  8
72_ARTEK_AKFURNITURE_D2_CH_SEA
 10
0.23014
 20
0.137413
 30
0
  0
VERTEX
  8
72_ARTEK_AKFURNITURE_D2_CH_SEA
 10
0.209486
 20
0.137481
 30
0
  0
VERTEX
  8
72_ARTEK_AKFURNITURE_D2_CH_SEA
 10
0.166952
 20
0.137715
 30
0
  0
VERTEX
  8
72_ARTEK_AKFURNITURE_D2_CH_SEA
 10
0.145685
 20
0.137883
 30
0
  0
VERTEX
  8
72_ARTEK_AKFURNITURE_D2_CH_SEA
 10
0.125646
 20
0.138067
 30
0
  0
VERTEX
  8
72_ARTEK_AKFURNITURE_D2_CH_SEA
 10
0.117529
 20
0.138145
 30
0
  0
VERTEX
  8
72_ARTEK_AKFURNITURE_D2_CH_SEA
 10
0.110781
 20
0.138213
 30
0
  0
VERTEX
  8
72_ARTEK_AKFURNITURE_D2_CH_SEA
 10
0.10024
 20
0.138326
 30
0
  0
VERTEX
  8
72_ARTEK_AKFURNITURE_D2_CH_SEA
 10
0.0825195
 20
0.138528
 30
0
  0
VERTEX
  8
72_ARTEK_AKFURNITURE_D2_CH_SEA
 10
0.0664281
 20
0.138712
 30
0
  0
VERTEX
  8
72_ARTEK_AKFURNITURE_D2_CH_SEA
 10
0.0610047
 20
0.138764
 30
0
  0
VERTEX
  8
72_ARTEK_AKFURNITURE_D2_CH_SEA
 10
0.0569313
 20
0.138797
 30
0
  0
VERTEX
  8
72_ARTEK_AKFURNITURE_D2_CH_SEA
 10
0.0493199
 20
0.138855
 30
0
  0
VERTEX
  8
72_ARTEK_AKFURNITURE_D2_CH_SEA
 10
0.0450251
 20
0.138863
 30
0
  0
VERTEX
  8
72_ARTEK_AKFURNITURE_D2_CH_SEA
 10
0.0408965
 20
0.138924
 30
0
  0
VERTEX
  8
72_ARTEK_AKFURNITURE_D2_CH_SEA
 10
0.0351778
 20
0.139324
 30
0
  0
VERTEX
  8
72_ARTEK_AKFURNITURE_D2_CH_SEA
 10
0.0281094
 20
0.140666
 30
0
  0
VERTEX
  8
72_ARTEK_AKFURNITURE_D2_CH_SEA
 10
0.0236991
 20
0.142601
 30
0
  0
VERTEX
  8
72_ARTEK_AKFURNITURE_D2_CH_SEA
 10
0.0216936
 20
0.144563
 30
0
  0
VERTEX
  8
72_ARTEK_AKFURNITURE_D2_CH_SEA
 10
0.0212266
 20
0.145499
 30
0
  0
VERTEX
  8
72_ARTEK_AKFURNITURE_D2_CH_SEA
 10
0.02074
 20
0.147307
 30
0
  0
VERTEX
  8
72_ARTEK_AKFURNITURE_D2_CH_SEA
 10
0.0201409
 20
0.150094
 30
0
  0
VERTEX
  8
72_ARTEK_AKFURNITURE_D2_CH_SEA
 10
0.0201375
 20
0.145815
 30
0
  0
VERTEX
  8
72_ARTEK_AKFURNITURE_D2_CH_SEA
 10
0.0201359
 20
0.138261
 30
0
  0
VERTEX
  8
72_ARTEK_AKFURNITURE_D2_CH_SEA
 10
0.0201359
 20
0.0221795
 30
0
  0
VERTEX
  8
72_ARTEK_AKFURNITURE_D2_CH_SEA
 10
0.0201359
 20
-0.209983
 30
0
  0
VERTEX
  8
72_ARTEK_AKFURNITURE_D2_CH_SEA
 10
0.0201359
 20
-0.326065
 30
0
  0
VERTEX
  8
72_ARTEK_AKFURNITURE_D2_CH_SEA
 10
0.0201359
 20
-0.33332
 30
0
  0
VERTEX
  8
72_ARTEK_AKFURNITURE_D2_CH_SEA
 10
0.0201294
 20
-0.339287
 30
0
  0
VERTEX
  8
72_ARTEK_AKFURNITURE_D2_CH_SEA
 10
0.0205729
 20
-0.343261
 30
0
  0
VERTEX
  8
72_ARTEK_AKFURNITURE_D2_CH_SEA
 10
0.0212639
 20
-0.346376
 30
0
  0
VERTEX
  8
72_ARTEK_AKFURNITURE_D2_CH_SEA
 10
0.0254751
 20
-0.349779
 30
0
  0
VERTEX
  8
72_ARTEK_AKFURNITURE_D2_CH_SEA
 10
0.0284373
 20
-0.3509
 30
0
  0
VERTEX
  8
72_ARTEK_AKFURNITURE_D2_CH_SEA
 10
0.0326727
 20
-0.35192
 30
0
  0
VERTEX
  8
72_ARTEK_AKFURNITURE_D2_CH_SEA
 10
0.0380912
 20
-0.352669
 30
0
  0
VERTEX
  8
72_ARTEK_AKFURNITURE_D2_CH_SEA
 10
0.0420919
 20
-0.353043
 30
0
  0
VERTEX
  8
72_ARTEK_AKFURNITURE_D2_CH_SEA
 10
0.0459947
 20
-0.353314
 30
0
  0
VERTEX
  8
72_ARTEK_AKFURNITURE_D2_CH_SEA
 10
0.048593
 20
-0.353442
 30
0
  0
VERTEX
  8
72_ARTEK_AKFURNITURE_D2_CH_SEA
 10
0.0532082
 20
-0.353547
 30
0
  0
VERTEX
  8
72_ARTEK_AKFURNITURE_D2_CH_SEA
 10
0.0598154
 20
-0.35365
 30
0
  0
VERTEX
  8
72_ARTEK_AKFURNITURE_D2_CH_SEA
 10
0.0677941
 20
-0.35374
 30
0
  0
VERTEX
  8
72_ARTEK_AKFURNITURE_D2_CH_SEA
 10
0.0759126
 20
-0.353778
 30
0
  0
VERTEX
  8
72_ARTEK_AKFURNITURE_D2_CH_SEA
 10
0.0859745
 20
-0.353807
 30
0
  0
VERTEX
  8
72_ARTEK_AKFURNITURE_D2_CH_SEA
 10
0.110773
 20
-0.35384
 30
0
  0
VERTEX
  8
72_ARTEK_AKFURNITURE_D2_CH_SEA
 10
0.117207
 20
-0.353842
 30
0
  0
VERTEX
  8
72_ARTEK_AKFURNITURE_D2_CH_SEA
 10
0.118816
 20
-0.353842
 30
0
  0
VERTEX
  8
72_ARTEK_AKFURNITURE_D2_CH_SEA
 10
0.12027
 20
-0.353843
 30
0
  0
VERTEX
  8
72_ARTEK_AKFURNITURE_D2_CH_SEA
 10
0.123065
 20
-0.353844
 30
0
  0
VERTEX
  8
72_ARTEK_AKFURNITURE_D2_CH_SEA
 10
0.127202
 20
-0.353846
 30
0
  0
VERTEX
  8
72_ARTEK_AKFURNITURE_D2_CH_SEA
 10
0.13268
 20
-0.353848
 30
0
  0
VERTEX
  8
72_ARTEK_AKFURNITURE_D2_CH_SEA
 10
0.146689
 20
-0.353855
 30
0
  0
VERTEX
  8
72_ARTEK_AKFURNITURE_D2_CH_SEA
 10
0.159056
 20
-0.353862
 30
0
  0
VERTEX
  8
72_ARTEK_AKFURNITURE_D2_CH_SEA
 10
0.16874
 20
-0.353869
 30
0
  0
VERTEX
  8
72_ARTEK_AKFURNITURE_D2_CH_SEA
 10
0.185376
 20
-0.353881
 30
0
  0
VERTEX
  8
72_ARTEK_AKFURNITURE_D2_CH_SEA
 10
0.218647
 20
-0.353907
 30
0
  0
VERTEX
  8
72_ARTEK_AKFURNITURE_D2_CH_SEA
 10
0.235682
 20
-0.353914
 30
0
  0
VERTEX
  8
72_ARTEK_AKFURNITURE_D2_CH_SEA
 10
0.247292
 20
-0.353917
 30
0
  0
VERTEX
  8
72_ARTEK_AKFURNITURE_D2_CH_SEA
 10
0.262228
 20
-0.353921
 30
0
  0
VERTEX
  8
72_ARTEK_AKFURNITURE_D2_CH_SEA
 10
0.328768
 20
-0.353924
 30
0
  0
VERTEX
  8
72_ARTEK_AKFURNITURE_D2_CH_SEA
 10
0.345403
 20
-0.353921
 30
0
  0
VERTEX
  8
72_ARTEK_AKFURNITURE_D2_CH_SEA
 10
0.360413
 20
-0.353918
 30
0
  0
VERTEX
  8
72_ARTEK_AKFURNITURE_D2_CH_SEA
 10
0.372097
 20
-0.353914
 30
0
  0
VERTEX
  8
72_ARTEK_AKFURNITURE_D2_CH_SEA
 10
0.38085
 20
-0.353911
 30
0
  0
VERTEX
  8
72_ARTEK_AKFURNITURE_D2_CH_SEA
 10
0.414122
 20
-0.353888
 30
0
  0
VERTEX
  8
72_ARTEK_AKFURNITURE_D2_CH_SEA
 10
0.430758
 20
-0.353875
 30
0
  0
VERTEX
  8
72_ARTEK_AKFURNITURE_D2_CH_SEA
 10
0.439075
 20
-0.353869
 30
0
  0
VERTEX
  8
72_ARTEK_AKFURNITURE_D2_CH_SEA
 10
0.4487
 20
-0.353862
 30
0
  0
VERTEX
  8
72_ARTEK_AKFURNITURE_D2_CH_SEA
 10
0.461007
 20
-0.353856
 30
0
  0
VERTEX
  8
72_ARTEK_AKFURNITURE_D2_CH_SEA
 10
0.475046
 20
-0.353848
 30
0
  0
VERTEX
  8
72_ARTEK_AKFURNITURE_D2_CH_SEA
 10
0.480584
 20
-0.353846
 30
0
  0
VERTEX
  8
72_ARTEK_AKFURNITURE_D2_CH_SEA
 10
0.48478
 20
-0.353844
 30
0
  0
VERTEX
  8
72_ARTEK_AKFURNITURE_D2_CH_SEA
 10
0.487635
 20
-0.353843
 30
0
  0
VERTEX
  8
72_ARTEK_AKFURNITURE_D2_CH_SEA
 10
0.489148
 20
-0.353842
 30
0
  0
VERTEX
  8
72_ARTEK_AKFURNITURE_D2_CH_SEA
 10
0.502015
 20
-0.353839
 30
0
  0
VERTEX
  8
72_ARTEK_AKFURNITURE_D2_CH_SEA
 10
0.526079
 20
-0.353795
 30
0
  0
VERTEX
  8
72_ARTEK_AKFURNITURE_D2_CH_SEA
 10
0.535171
 20
-0.353769
 30
0
  0
VERTEX
  8
72_ARTEK_AKFURNITURE_D2_CH_SEA
 10
0.543193
 20
-0.353712
 30
0
  0
VERTEX
  8
72_ARTEK_AKFURNITURE_D2_CH_SEA
 10
0.550873
 20
-0.353611
 30
0
  0
VERTEX
  8
72_ARTEK_AKFURNITURE_D2_CH_SEA
 10
0.55675
 20
-0.35351
 30
0
  0
VERTEX
  8
72_ARTEK_AKFURNITURE_D2_CH_SEA
 10
0.560596
 20
-0.353397
 30
0
  0
VERTEX
  8
72_ARTEK_AKFURNITURE_D2_CH_SEA
 10
0.562744
 20
-0.353264
 30
0
  0
VERTEX
  8
72_ARTEK_AKFURNITURE_D2_CH_SEA
 10
0.57098
 20
-0.352553
 30
0
  0
VERTEX
  8
72_ARTEK_AKFURNITURE_D2_CH_SEA
 10
0.576206
 20
-0.351748
 30
0
  0
VERTEX
  8
72_ARTEK_AKFURNITURE_D2_CH_SEA
 10
0.580209
 20
-0.350695
 30
0
  0
VERTEX
  8
72_ARTEK_AKFURNITURE_D2_CH_SEA
 10
0.585
 20
-0.348269
 30
0
  0
SEQEND
  0
POLYLINE
  8
72_ARTEK_AKFURNITURE_D2_CH_SEA
 66
     1
 70
     0
 10
0.0
 20
0.0
 30
0.0
  0
VERTEX
  8
72_ARTEK_AKFURNITURE_D2_CH_SEA
 10
0.587118
 20
0.141764
 30
0
  0
VERTEX
  8
72_ARTEK_AKFURNITURE_D2_CH_SEA
 10
0.585875
 20
0.142486
 30
0
  0
VERTEX
  8
72_ARTEK_AKFURNITURE_D2_CH_SEA
 10
0.585104
 20
0.143003
 30
0
  0
VERTEX
  8
72_ARTEK_AKFURNITURE_D2_CH_SEA
 10
0.585
 20
0.142186
 30
0
  0
VERTEX
  8
72_ARTEK_AKFURNITURE_D2_CH_SEA
 10
0.585
 20
0.138119
 30
0
  0
VERTEX
  8
72_ARTEK_AKFURNITURE_D2_CH_SEA
 10
0.585
 20
0.129986
 30
0
  0
VERTEX
  8
72_ARTEK_AKFURNITURE_D2_CH_SEA
 10
0.585
 20
0.113719
 30
0
  0
VERTEX
  8
72_ARTEK_AKFURNITURE_D2_CH_SEA
 10
0.585
 20
0.0811852
 30
0
  0
VERTEX
  8
72_ARTEK_AKFURNITURE_D2_CH_SEA
 10
0.585
 20
0.0161173
 30
0
  0
VERTEX
  8
72_ARTEK_AKFURNITURE_D2_CH_SEA
 10
0.585
 20
-0.114018
 30
0
  0
VERTEX
  8
72_ARTEK_AKFURNITURE_D2_CH_SEA
 10
0.585
 20
-0.244154
 30
0
  0
VERTEX
  8
72_ARTEK_AKFURNITURE_D2_CH_SEA
 10
0.585
 20
-0.309222
 30
0
  0
VERTEX
  8
72_ARTEK_AKFURNITURE_D2_CH_SEA
 10
0.585
 20
-0.341756
 30
0
  0
VERTEX
  8
72_ARTEK_AKFURNITURE_D2_CH_SEA
 10
0.585
 20
-0.345822
 30
0
  0
VERTEX
  8
72_ARTEK_AKFURNITURE_D2_CH_SEA
 10
0.585
 20
-0.347856
 30
0
  0
VERTEX
  8
72_ARTEK_AKFURNITURE_D2_CH_SEA
 10
0.586094
 20
-0.349029
 30
0
  0
VERTEX
  8
72_ARTEK_AKFURNITURE_D2_CH_SEA
 10
0.589472
 20
-0.350586
 30
0
  0
VERTEX
  8
72_ARTEK_AKFURNITURE_D2_CH_SEA
 10
0.595048
 20
-0.351988
 30
0
  0
VERTEX
  8
72_ARTEK_AKFURNITURE_D2_CH_SEA
 10
0.602137
 20
-0.352877
 30
0
  0
VERTEX
  8
72_ARTEK_AKFURNITURE_D2_CH_SEA
 10
0.607194
 20
-0.353259
 30
0
  0
VERTEX
  8
72_ARTEK_AKFURNITURE_D2_CH_SEA
 10
0.610441
 20
-0.353437
 30
0
  0
VERTEX
  8
72_ARTEK_AKFURNITURE_D2_CH_SEA
 10
0.617093
 20
-0.353579
 30
0
  0
VERTEX
  8
72_ARTEK_AKFURNITURE_D2_CH_SEA
 10
0.62721
 20
-0.353717
 30
0
  0
VERTEX
  8
72_ARTEK_AKFURNITURE_D2_CH_SEA
 10
0.638252
 20
-0.353779
 30
0
  0
VERTEX
  8
72_ARTEK_AKFURNITURE_D2_CH_SEA
 10
0.644879
 20
-0.353798
 30
0
  0
VERTEX
  8
72_ARTEK_AKFURNITURE_D2_CH_SEA
 10
0.652696
 20
-0.353819
 30
0
  0
VERTEX
  8
72_ARTEK_AKFURNITURE_D2_CH_SEA
 10
0.66968
 20
-0.35384
 30
0
  0
VERTEX
  8
72_ARTEK_AKFURNITURE_D2_CH_SEA
 10
0.678435
 20
-0.353842
 30
0
  0
VERTEX
  8
72_ARTEK_AKFURNITURE_D2_CH_SEA
 10
0.680624
 20
-0.353842
 30
0
  0
VERTEX
  8
72_ARTEK_AKFURNITURE_D2_CH_SEA
 10
0.682537
 20
-0.353843
 30
0
  0
VERTEX
  8
72_ARTEK_AKFURNITURE_D2_CH_SEA
 10
0.686891
 20
-0.353845
 30
0
  0
VERTEX
  8
72_ARTEK_AKFURNITURE_D2_CH_SEA
 10
0.693728
 20
-0.353848
 30
0
  0
VERTEX
  8
72_ARTEK_AKFURNITURE_D2_CH_SEA
 10
0.703013
 20
-0.353852
 30
0
  0
VERTEX
  8
72_ARTEK_AKFURNITURE_D2_CH_SEA
 10
0.712445
 20
-0.353857
 30
0
  0
VERTEX
  8
72_ARTEK_AKFURNITURE_D2_CH_SEA
 10
0.720636
 20
-0.353862
 30
0
  0
VERTEX
  8
72_ARTEK_AKFURNITURE_D2_CH_SEA
 10
0.733423
 20
-0.353871
 30
0
  0
VERTEX
  8
72_ARTEK_AKFURNITURE_D2_CH_SEA
 10
0.74474
 20
-0.353879
 30
0
  0
VERTEX
  8
72_ARTEK_AKFURNITURE_D2_CH_SEA
 10
0.767374
 20
-0.353897
 30
0
  0
VERTEX
  8
72_ARTEK_AKFURNITURE_D2_CH_SEA
 10
0.790008
 20
-0.353912
 30
0
  0
VERTEX
  8
72_ARTEK_AKFURNITURE_D2_CH_SEA
 10
0.795812
 20
-0.353914
 30
0
  0
VERTEX
  8
72_ARTEK_AKFURNITURE_D2_CH_SEA
 10
0.802908
 20
-0.353916
 30
0
  0
VERTEX
  8
72_ARTEK_AKFURNITURE_D2_CH_SEA
 10
0.811544
 20
-0.353918
 30
0
  0
VERTEX
  8
72_ARTEK_AKFURNITURE_D2_CH_SEA
 10
0.821719
 20
-0.35392
 30
0
  0
VERTEX
  8
72_ARTEK_AKFURNITURE_D2_CH_SEA
 10
0.912079
 20
-0.35392
 30
0
  0
VERTEX
  8
72_ARTEK_AKFURNITURE_D2_CH_SEA
 10
0.921998
 20
-0.353918
 30
0
  0
VERTEX
  8
72_ARTEK_AKFURNITURE_D2_CH_SEA
 10
0.930378
 20
-0.353915
 30
0
  0
VERTEX
  8
72_ARTEK_AKFURNITURE_D2_CH_SEA
 10
0.942933
 20
-0.353911
 30
0
  0
VERTEX
  8
72_ARTEK_AKFURNITURE_D2_CH_SEA
 10
0.965566
 20
-0.353896
 30
0
  0
VERTEX
  8
72_ARTEK_AKFURNITURE_D2_CH_SEA
 10
0.9882
 20
-0.353879
 30
0
  0
VERTEX
  8
72_ARTEK_AKFURNITURE_D2_CH_SEA
 10
0.999517
 20
-0.35387
 30
0
  0
VERTEX
  8
72_ARTEK_AKFURNITURE_D2_CH_SEA
 10
1.00548
 20
-0.353866
 30
0
  0
VERTEX
  8
72_ARTEK_AKFURNITURE_D2_CH_SEA
 10
1.01264
 20
-0.353861
 30
0
  0
VERTEX
  8
72_ARTEK_AKFURNITURE_D2_CH_SEA
 10
1.02104
 20
-0.353857
 30
0
  0
VERTEX
  8
72_ARTEK_AKFURNITURE_D2_CH_SEA
 10
1.03067
 20
-0.353852
 30
0
  0
VERTEX
  8
72_ARTEK_AKFURNITURE_D2_CH_SEA
 10
1.03958
 20
-0.353847
 30
0
  0
VERTEX
  8
72_ARTEK_AKFURNITURE_D2_CH_SEA
 10
1.04601
 20
-0.353844
 30
0
  0
VERTEX
  8
72_ARTEK_AKFURNITURE_D2_CH_SEA
 10
1.04995
 20
-0.353842
 30
0
  0
VERTEX
  8
72_ARTEK_AKFURNITURE_D2_CH_SEA
 10
1.05156
 20
-0.353842
 30
0
  0
VERTEX
  8
72_ARTEK_AKFURNITURE_D2_CH_SEA
 10
1.05375
 20
-0.353841
 30
0
  0
VERTEX
  8
72_ARTEK_AKFURNITURE_D2_CH_SEA
 10
1.07113
 20
-0.353834
 30
0
  0
VERTEX
  8
72_ARTEK_AKFURNITURE_D2_CH_SEA
 10
1.08727
 20
-0.353798
 30
0
  0
VERTEX
  8
72_ARTEK_AKFURNITURE_D2_CH_SEA
 10
1.09945
 20
-0.353759
 30
0
  0
VERTEX
  8
72_ARTEK_AKFURNITURE_D2_CH_SEA
 10
1.11031
 20
-0.353648
 30
0
  0
VERTEX
  8
72_ARTEK_AKFURNITURE_D2_CH_SEA
 10
1.11877
 20
-0.353509
 30
0
  0
VERTEX
  8
72_ARTEK_AKFURNITURE_D2_CH_SEA
 10
1.12348
 20
-0.353349
 30
0
  0
VERTEX
  8
72_ARTEK_AKFURNITURE_D2_CH_SEA
 10
1.12871
 20
-0.352979
 30
0
  0
VERTEX
  8
72_ARTEK_AKFURNITURE_D2_CH_SEA
 10
1.13524
 20
-0.352263
 30
0
  0
VERTEX
  8
72_ARTEK_AKFURNITURE_D2_CH_SEA
 10
1.14138
 20
-0.350954
 30
0
  0
VERTEX
  8
72_ARTEK_AKFURNITURE_D2_CH_SEA
 10
1.14522
 20
-0.349423
 30
0
  0
VERTEX
  8
72_ARTEK_AKFURNITURE_D2_CH_SEA
 10
1.1483
 20
-0.347121
 30
0
  0
VERTEX
  8
72_ARTEK_AKFURNITURE_D2_CH_SEA
 10
1.14894
 20
-0.344329
 30
0
  0
VERTEX
  8
72_ARTEK_AKFURNITURE_D2_CH_SEA
 10
1.14964
 20
-0.342708
 30
0
  0
VERTEX
  8
72_ARTEK_AKFURNITURE_D2_CH_SEA
 10
1.14987
 20
-0.339865
 30
0
  0
VERTEX
  8
72_ARTEK_AKFURNITURE_D2_CH_SEA
 10
1.14986
 20
-0.33635
 30
0
  0
VERTEX
  8
72_ARTEK_AKFURNITURE_D2_CH_SEA
 10
1.14986
 20
-0.331599
 30
0
  0
VERTEX
  8
72_ARTEK_AKFURNITURE_D2_CH_SEA
 10
1.14986
 20
-0.252631
 30
0
  0
VERTEX
  8
72_ARTEK_AKFURNITURE_D2_CH_SEA
 10
1.14986
 20
-0.0946955
 30
0
  0
VERTEX
  8
72_ARTEK_AKFURNITURE_D2_CH_SEA
 10
1.14986
 20
0.0632403
 30
0
  0
VERTEX
  8
72_ARTEK_AKFURNITURE_D2_CH_SEA
 10
1.14986
 20
0.142233
 30
0
  0
VERTEX
  8
72_ARTEK_AKFURNITURE_D2_CH_SEA
 10
1.14986
 20
0.14769
 30
0
  0
VERTEX
  8
72_ARTEK_AKFURNITURE_D2_CH_SEA
 10
1.14981
 20
0.150143
 30
0
  0
VERTEX
  8
72_ARTEK_AKFURNITURE_D2_CH_SEA
 10
1.14937
 20
0.147833
 30
0
  0
VERTEX
  8
72_ARTEK_AKFURNITURE_D2_CH_SEA
 10
1.1487
 20
0.145349
 30
0
  0
VERTEX
  8
72_ARTEK_AKFURNITURE_D2_CH_SEA
 10
1.14709
 20
0.143142
 30
0
  0
VERTEX
  8
72_ARTEK_AKFURNITURE_D2_CH_SEA
 10
1.14415
 20
0.141436
 30
0
  0
VERTEX
  8
72_ARTEK_AKFURNITURE_D2_CH_SEA
 10
1.14066
 20
0.140332
 30
0
  0
VERTEX
  8
72_ARTEK_AKFURNITURE_D2_CH_SEA
 10
1.13583
 20
0.139435
 30
0
  0
VERTEX
  8
72_ARTEK_AKFURNITURE_D2_CH_SEA
 10
1.12839
 20
0.138896
 30
0
  0
VERTEX
  8
72_ARTEK_AKFURNITURE_D2_CH_SEA
 10
1.12309
 20
0.138863
 30
0
  0
VERTEX
  8
72_ARTEK_AKFURNITURE_D2_CH_SEA
 10
1.11951
 20
0.138847
 30
0
  0
VERTEX
  8
72_ARTEK_AKFURNITURE_D2_CH_SEA
 10
1.11418
 20
0.138806
 30
0
  0
VERTEX
  8
72_ARTEK_AKFURNITURE_D2_CH_SEA
 10
1.10861
 20
0.138761
 30
0
  0
VERTEX
  8
72_ARTEK_AKFURNITURE_D2_CH_SEA
 10
1.10041
 20
0.138677
 30
0
  0
VERTEX
  8
72_ARTEK_AKFURNITURE_D2_CH_SEA
 10
1.07752
 20
0.138413
 30
0
  0
VERTEX
  8
72_ARTEK_AKFURNITURE_D2_CH_SEA
 10
1.0644
 20
0.138268
 30
0
  0
VERTEX
  8
72_ARTEK_AKFURNITURE_D2_CH_SEA
 10
1.05655
 20
0.138186
 30
0
  0
VERTEX
  8
72_ARTEK_AKFURNITURE_D2_CH_SEA
 10
1.04625
 20
0.138085
 30
0
  0
VERTEX
  8
72_ARTEK_AKFURNITURE_D2_CH_SEA
 10
1.03342
 20
0.137964
 30
0
  0
VERTEX
  8
72_ARTEK_AKFURNITURE_D2_CH_SEA
 10
1.01898
 20
0.137837
 30
0
  0
VERTEX
  8
72_ARTEK_AKFURNITURE_D2_CH_SEA
 10
0.990044
 20
0.137629
 30
0
  0
VERTEX
  8
72_ARTEK_AKFURNITURE_D2_CH_SEA
 10
0.961109
 20
0.137483
 30
0
  0
VERTEX
  8
72_ARTEK_AKFURNITURE_D2_CH_SEA
 10
0.94667
 20
0.137433
 30
0
  0
VERTEX
  8
72_ARTEK_AKFURNITURE_D2_CH_SEA
 10
0.934053
 20
0.137396
 30
0
  0
VERTEX
  8
72_ARTEK_AKFURNITURE_D2_CH_SEA
 10
0.924327
 20
0.137372
 30
0
  0
VERTEX
  8
72_ARTEK_AKFURNITURE_D2_CH_SEA
 10
0.917347
 20
0.13736
 30
0
  0
VERTEX
  8
72_ARTEK_AKFURNITURE_D2_CH_SEA
 10
0.903089
 20
0.137348
 30
0
  0
VERTEX
  8
72_ARTEK_AKFURNITURE_D2_CH_SEA
 10
0.89475
 20
0.137346
 30
0
  0
VERTEX
  8
72_ARTEK_AKFURNITURE_D2_CH_SEA
 10
0.884478
 20
0.137345
 30
0
  0
VERTEX
  8
72_ARTEK_AKFURNITURE_D2_CH_SEA
 10
0.872034
 20
0.137344
 30
0
  0
VERTEX
  8
72_ARTEK_AKFURNITURE_D2_CH_SEA
 10
0.85812
 20
0.137344
 30
0
  0
VERTEX
  8
72_ARTEK_AKFURNITURE_D2_CH_SEA
 10
0.845975
 20
0.137345
 30
0
  0
VERTEX
  8
72_ARTEK_AKFURNITURE_D2_CH_SEA
 10
0.836003
 20
0.137346
 30
0
  0
VERTEX
  8
72_ARTEK_AKFURNITURE_D2_CH_SEA
 10
0.820446
 20
0.137353
 30
0
  0
VERTEX
  8
72_ARTEK_AKFURNITURE_D2_CH_SEA
 10
0.806503
 20
0.137375
 30
0
  0
VERTEX
  8
72_ARTEK_AKFURNITURE_D2_CH_SEA
 10
0.796378
 20
0.137401
 30
0
  0
VERTEX
  8
72_ARTEK_AKFURNITURE_D2_CH_SEA
 10
0.783362
 20
0.137439
 30
0
  0
VERTEX
  8
72_ARTEK_AKFURNITURE_D2_CH_SEA
 10
0.725493
 20
0.13774
 30
0
  0
VERTEX
  8
72_ARTEK_AKFURNITURE_D2_CH_SEA
 10
0.69666
 20
0.137982
 30
0
  0
VERTEX
  8
72_ARTEK_AKFURNITURE_D2_CH_SEA
 10
0.684178
 20
0.1381
 30
0
  0
VERTEX
  8
72_ARTEK_AKFURNITURE_D2_CH_SEA
 10
0.674227
 20
0.138198
 30
0
  0
VERTEX
  8
72_ARTEK_AKFURNITURE_D2_CH_SEA
 10
0.659875
 20
0.138353
 30
0
  0
VERTEX
  8
72_ARTEK_AKFURNITURE_D2_CH_SEA
 10
0.647855
 20
0.138489
 30
0
  0
VERTEX
  8
72_ARTEK_AKFURNITURE_D2_CH_SEA
 10
0.636368
 20
0.138622
 30
0
  0
VERTEX
  8
72_ARTEK_AKFURNITURE_D2_CH_SEA
 10
0.626412
 20
0.138732
 30
0
  0
VERTEX
  8
72_ARTEK_AKFURNITURE_D2_CH_SEA
 10
0.614679
 20
0.138831
 30
0
  0
VERTEX
  8
72_ARTEK_AKFURNITURE_D2_CH_SEA
 10
0.610195
 20
0.13886
 30
0
  0
VERTEX
  8
72_ARTEK_AKFURNITURE_D2_CH_SEA
 10
0.607459
 20
0.138863
 30
0
  0
VERTEX
  8
72_ARTEK_AKFURNITURE_D2_CH_SEA
 10
0.601543
 20
0.138994
 30
0
  0
VERTEX
  8
72_ARTEK_AKFURNITURE_D2_CH_SEA
 10
0.594648
 20
0.139647
 30
0
  0
VERTEX
  8
72_ARTEK_AKFURNITURE_D2_CH_SEA
 10
0.590204
 20
0.140639
 30
0
  0
VERTEX
  8
72_ARTEK_AKFURNITURE_D2_CH_SEA
 10
0.587118
 20
0.141764
 30
0
  0
SEQEND
  0
POLYLINE
  8
72_ARTEK_AKFURNITURE_D2SNAP
 66
     1
 70
     0
 10
0.0
 20
0.0
 30
0.0
  0
VERTEX
  8
72_ARTEK_AKFURNITURE_D2SNAP
 10
0.5975
 20
-0
 30
0
  0
VERTEX
  8
72_ARTEK_AKFURNITURE_D2SNAP
 10
0.59726
 20
0.00243863
 30
0
  0
VERTEX
  8
72_ARTEK_AKFURNITURE_D2SNAP
 10
0.596548
 20
0.00478354
 30
0
  0
VERTEX
  8
72_ARTEK_AKFURNITURE_D2SNAP
 10
0.595393
 20
0.00694463
 30
0
  0
VERTEX
  8
72_ARTEK_AKFURNITURE_D2SNAP
 10
0.593839
 20
0.00883883
 30
0
  0
VERTEX
  8
72_ARTEK_AKFURNITURE_D2SNAP
 10
0.591945
 20
0.0103934
 30
0
  0
VERTEX
  8
72_ARTEK_AKFURNITURE_D2SNAP
 10
0.589784
 20
0.0115485
 30
0
  0
VERTEX
  8
72_ARTEK_AKFURNITURE_D2SNAP
 10
0.587439
 20
0.0122598
 30
0
  0
VERTEX
  8
72_ARTEK_AKFURNITURE_D2SNAP
 10
0.585
 20
0.0125
 30
0
  0
VERTEX
  8
72_ARTEK_AKFURNITURE_D2SNAP
 10
0.582561
 20
0.0122598
 30
0
  0
VERTEX
  8
72_ARTEK_AKFURNITURE_D2SNAP
 10
0.580216
 20
0.0115485
 30
0
  0
VERTEX
  8
72_ARTEK_AKFURNITURE_D2SNAP
 10
0.578055
 20
0.0103934
 30
0
  0
VERTEX
  8
72_ARTEK_AKFURNITURE_D2SNAP
 10
0.576161
 20
0.00883883
 30
0
  0
VERTEX
  8
72_ARTEK_AKFURNITURE_D2SNAP
 10
0.574607
 20
0.00694463
 30
0
  0
VERTEX
  8
72_ARTEK_AKFURNITURE_D2SNAP
 10
0.573452
 20
0.00478354
 30
0
  0
VERTEX
  8
72_ARTEK_AKFURNITURE_D2SNAP
 10
0.57274
 20
0.00243863
 30
0
  0
VERTEX
  8
72_ARTEK_AKFURNITURE_D2SNAP
 10
0.5725
 20
3.15316e-018
 30
0
  0
VERTEX
  8
72_ARTEK_AKFURNITURE_D2SNAP
 10
0.57274
 20
-0.00243863
 30
0
  0
VERTEX
  8
72_ARTEK_AKFURNITURE_D2SNAP
 10
0.573452
 20
-0.00478354
 30
0
  0
VERTEX
  8
72_ARTEK_AKFURNITURE_D2SNAP
 10
0.574607
 20
-0.00694463
 30
0
  0
VERTEX
  8
72_ARTEK_AKFURNITURE_D2SNAP
 10
0.576161
 20
-0.00883883
 30
0
  0
VERTEX
  8
72_ARTEK_AKFURNITURE_D2SNAP
 10
0.578055
 20
-0.0103934
 30
0
  0
VERTEX
  8
72_ARTEK_AKFURNITURE_D2SNAP
 10
0.580216
 20
-0.0115485
 30
0
  0
VERTEX
  8
72_ARTEK_AKFURNITURE_D2SNAP
 10
0.582561
 20
-0.0122598
 30
0
  0
VERTEX
  8
72_ARTEK_AKFURNITURE_D2SNAP
 10
0.585
 20
-0.0125
 30
0
  0
VERTEX
  8
72_ARTEK_AKFURNITURE_D2SNAP
 10
0.587439
 20
-0.0122598
 30
0
  0
VERTEX
  8
72_ARTEK_AKFURNITURE_D2SNAP
 10
0.589784
 20
-0.0115485
 30
0
  0
VERTEX
  8
72_ARTEK_AKFURNITURE_D2SNAP
 10
0.591945
 20
-0.0103934
 30
0
  0
VERTEX
  8
72_ARTEK_AKFURNITURE_D2SNAP
 10
0.593839
 20
-0.00883883
 30
0
  0
VERTEX
  8
72_ARTEK_AKFURNITURE_D2SNAP
 10
0.595393
 20
-0.00694463
 30
0
  0
VERTEX
  8
72_ARTEK_AKFURNITURE_D2SNAP
 10
0.596548
 20
-0.00478354
 30
0
  0
VERTEX
  8
72_ARTEK_AKFURNITURE_D2SNAP
 10
0.59726
 20
-0.00243863
 30
0
  0
VERTEX
  8
72_ARTEK_AKFURNITURE_D2SNAP
 10
0.5975
 20
-0
 30
0
  0
SEQEND
  0
POLYLINE
  8
72_ARTEK_AKFURNITURE_D2SNAP
 66
     1
 70
     0
 10
0.0
 20
0.0
 30
0.0
  0
VERTEX
  8
72_ARTEK_AKFURNITURE_D2SNAP
 10
0.567322
 20
-0.0176777
 30
0
  0
VERTEX
  8
72_ARTEK_AKFURNITURE_D2SNAP
 10
0.602678
 20
0.0176777
 30
0
  0
SEQEND
  0
POLYLINE
  8
72_ARTEK_AKFURNITURE_D2SNAP
 66
     1
 70
     0
 10
0.0
 20
0.0
 30
0.0
  0
VERTEX
  8
72_ARTEK_AKFURNITURE_D2SNAP
 10
0.567322
 20
0.0176777
 30
0
  0
VERTEX
  8
72_ARTEK_AKFURNITURE_D2SNAP
 10
0.602678
 20
-0.0176777
 30
0
  0
SEQEND
  0
ENDBLK
  8
0
  0
BLOCK
  8
0
  2
OB2D__000001
 70
    64
 10
0.0
 20
0.0
 30
0.0
  3
OB2D__000001
  0
ENDBLK
  8
0
  0
ENDSEC
  0
SECTION
  2
ENTITIES
  0
INSERT
  8
72OFGO2D01_GRAFIK
  2
OB2D__000000
 10
0.0
 20
0.0
 30
0.0
  0
INSERT
  8
72OFGO2D01_GRAFIK
  2
OB2D__000001
 10
0.0
 20
0.0
 30
0.0
  0
ENDSEC
  0
EOF
