  0
SECTION
  2
HEADER
  9
$ACADVER
  1
AC1009
  9
$INSBASE
 10
0.0
 20
0.0
 30
0.0
  9
$EXTMIN
 10
0
 20
-0.55
 30
-0.3877
  9
$EXTMAX
 10
2.002
 20
-0
 30
1.754
  0
ENDSEC
  0
SECTION
  2
TABLES
  0
TABLE
  2
LTYPE
 70
     2
  0
LTYPE
  2
CONTINUOUS
 70
    64
  3
________
 72
    65
 73
     0
 40
0.0
  0
LTYPE
  2
DASHED
 70
     0
  3
__ __ __
 72
    65
 73
     2
 40
0.75
 49
0.5
 49
-0.25
  0
LTYPE
  2
DOT
 70
     0
  3
. . . .
 72
    65
 73
     2
 40
0.25
 49
0.0
 49
-0.25
  0
LTYPE
  2
DASHDOT
 70
     0
  3
_ . _ .
 72
    65
 73
     4
 40
1.0
 49
0.5
 49
-0.25
 49
-0.0
 49
-0.25
  0
LTYPE
  2
DASHDOUBLEDOT
 70
     0
  3
__..__..
 72
    65
 73
     6
 40
1.25
 49
0.5
 49
-0.25
 49
-0.0
 49
-0.25
 49
-0.0
 49
-0.25
  0
LTYPE
  2
DASHTRIPLEDOT
 70
     0
  3
__...__...__
 72
    65
 73
     8
 40
1.5
 49
0.5
 49
-0.25
 49
-0.0
 49
-0.25
 49
-0.0
 49
-0.25
 49
-0.0
 49
-0.25
  0
ENDTAB
  0
TABLE
  2
LAYER
 70
    14
  0
LAYER
  2
0
 70
    64
 62
     7
  6
CONTINUOUS
  0
LAYER
  2
CEILING
 70
    64
 62
     7
  6
CONTINUOUS
  0
LAYER
  2
FLOORBLOCK
 70
    64
 62
     7
  6
CONTINUOUS
  0
LAYER
  2
FLOORHATCHING
 70
    64
 62
     7
  6
CONTINUOUS
  0
LAYER
  2
SNAP
 70
    64
 62
     7
  6
CONTINUOUS
  0
LAYER
  2
ATTACHPOINT
 70
    64
 62
     7
  6
CONTINUOUS
  0
LAYER
  2
72_ARTEK_AKFURNITURE_D2_SH_ATT
 70
    64
 62
8
  6
CONTINUOUS
  0
LAYER
  2
72_ARTEK_AKFURNITURE_D2SNAP
 70
    64
 62
1
  6
CONTINUOUS
  0
LAYER
  2
72_ARTEK_AKFURNITURE_D2_SH_FRA
 70
    64
 62
18
  6
CONTINUOUS
  0
LAYER
  2
72_ARTEK_AKFURNITURE_D2_SH_SHE
 70
    64
 62
18
  6
CONTINUOUS
  0
LAYER
  2
72_ARTEK_AKFURNITURE_D2_TB_ATT
 70
    64
 62
8
  6
CONTINUOUS
  0
LAYER
  2
72_ARTEK_AKFURNITURE_D2_TB_TAB
 70
    64
 62
18
  6
CONTINUOUS
  0
LAYER
  2
72_ARTEK_AKFURNITURE_D2_ACC
 70
    64
 62
18
  6
CONTINUOUS
  0
LAYER
  2
72OFGO2D01_GRAFIK
 70
    64
 62
     1
  6
CONTINUOUS
  0
ENDTAB
  0
TABLE
  2
STYLE
 70
     1
  0
STYLE
  2
STANDARD
 70
     0
 40
0.0
 41
1.0
 50
0.0
 71
     0
 42
0.2
  3
txt
  4

  0
ENDTAB
  0
TABLE
  2
APPID
 70
    64
  0
APPID
  2
ACAD
 70
    64
  0
APPID
  2
OFML_10
 70
    64
  0
ENDTAB
  0
ENDSEC
  0
SECTION
  2
BLOCKS
  0
BLOCK
  8
0
  2
OB2D__000000
 70
    64
 10
0.0
 20
0.0
 30
0.0
  3
OB2D__000000
  0
POLYLINE
  8
72_ARTEK_AKFURNITURE_D2_SH_ATT
 66
     1
 70
     0
 10
0.0
 20
0.0
 30
0.0
  0
VERTEX
  8
72_ARTEK_AKFURNITURE_D2_SH_ATT
 10
0.0905
 20
-0.053
 30
0
  0
VERTEX
  8
72_ARTEK_AKFURNITURE_D2_SH_ATT
 10
0.0901527
 20
-0.0529696
 30
0
  0
VERTEX
  8
72_ARTEK_AKFURNITURE_D2_SH_ATT
 10
0.089816
 20
-0.0528794
 30
0
  0
VERTEX
  8
72_ARTEK_AKFURNITURE_D2_SH_ATT
 10
0.0895
 20
-0.0527321
 30
0
  0
VERTEX
  8
72_ARTEK_AKFURNITURE_D2_SH_ATT
 10
0.0895
 20
-0.505
 30
0
  0
VERTEX
  8
72_ARTEK_AKFURNITURE_D2_SH_ATT
 10
0.0895
 20
-0.505
 30
0
  0
VERTEX
  8
72_ARTEK_AKFURNITURE_D2_SH_ATT
 10
0.089576
 20
-0.505868
 30
0
  0
VERTEX
  8
72_ARTEK_AKFURNITURE_D2_SH_ATT
 10
0.0898015
 20
-0.50671
 30
0
  0
VERTEX
  8
72_ARTEK_AKFURNITURE_D2_SH_ATT
 10
0.0901699
 20
-0.5075
 30
0
  0
VERTEX
  8
72_ARTEK_AKFURNITURE_D2_SH_ATT
 10
0.0906698
 20
-0.508214
 30
0
  0
VERTEX
  8
72_ARTEK_AKFURNITURE_D2_SH_ATT
 10
0.0912861
 20
-0.50883
 30
0
  0
VERTEX
  8
72_ARTEK_AKFURNITURE_D2_SH_ATT
 10
0.092
 20
-0.50933
 30
0
  0
VERTEX
  8
72_ARTEK_AKFURNITURE_D2_SH_ATT
 10
0.0927899
 20
-0.509698
 30
0
  0
VERTEX
  8
72_ARTEK_AKFURNITURE_D2_SH_ATT
 10
0.0936318
 20
-0.509924
 30
0
  0
VERTEX
  8
72_ARTEK_AKFURNITURE_D2_SH_ATT
 10
0.0945
 20
-0.51
 30
0
  0
VERTEX
  8
72_ARTEK_AKFURNITURE_D2_SH_ATT
 10
0.1095
 20
-0.51
 30
0
  0
VERTEX
  8
72_ARTEK_AKFURNITURE_D2_SH_ATT
 10
0.1095
 20
-0.51
 30
0
  0
VERTEX
  8
72_ARTEK_AKFURNITURE_D2_SH_ATT
 10
0.110368
 20
-0.509924
 30
0
  0
VERTEX
  8
72_ARTEK_AKFURNITURE_D2_SH_ATT
 10
0.11121
 20
-0.509698
 30
0
  0
VERTEX
  8
72_ARTEK_AKFURNITURE_D2_SH_ATT
 10
0.112
 20
-0.50933
 30
0
  0
VERTEX
  8
72_ARTEK_AKFURNITURE_D2_SH_ATT
 10
0.112714
 20
-0.50883
 30
0
  0
VERTEX
  8
72_ARTEK_AKFURNITURE_D2_SH_ATT
 10
0.11333
 20
-0.508214
 30
0
  0
VERTEX
  8
72_ARTEK_AKFURNITURE_D2_SH_ATT
 10
0.11383
 20
-0.5075
 30
0
  0
VERTEX
  8
72_ARTEK_AKFURNITURE_D2_SH_ATT
 10
0.114198
 20
-0.50671
 30
0
  0
VERTEX
  8
72_ARTEK_AKFURNITURE_D2_SH_ATT
 10
0.114424
 20
-0.505868
 30
0
  0
VERTEX
  8
72_ARTEK_AKFURNITURE_D2_SH_ATT
 10
0.1145
 20
-0.505
 30
0
  0
VERTEX
  8
72_ARTEK_AKFURNITURE_D2_SH_ATT
 10
0.1145
 20
-0.0527321
 30
0
  0
VERTEX
  8
72_ARTEK_AKFURNITURE_D2_SH_ATT
 10
0.1145
 20
-0.0527321
 30
0
  0
VERTEX
  8
72_ARTEK_AKFURNITURE_D2_SH_ATT
 10
0.114184
 20
-0.0528794
 30
0
  0
VERTEX
  8
72_ARTEK_AKFURNITURE_D2_SH_ATT
 10
0.113847
 20
-0.0529696
 30
0
  0
VERTEX
  8
72_ARTEK_AKFURNITURE_D2_SH_ATT
 10
0.1135
 20
-0.053
 30
0
  0
VERTEX
  8
72_ARTEK_AKFURNITURE_D2_SH_ATT
 10
0.0905
 20
-0.053
 30
0
  0
SEQEND
  0
POLYLINE
  8
72_ARTEK_AKFURNITURE_D2_SH_ATT
 66
     1
 70
     0
 10
0.0
 20
0.0
 30
0.0
  0
VERTEX
  8
72_ARTEK_AKFURNITURE_D2_SH_ATT
 10
1.0135
 20
-0.053
 30
0
  0
VERTEX
  8
72_ARTEK_AKFURNITURE_D2_SH_ATT
 10
1.01385
 20
-0.0529696
 30
0
  0
VERTEX
  8
72_ARTEK_AKFURNITURE_D2_SH_ATT
 10
1.01418
 20
-0.0528794
 30
0
  0
VERTEX
  8
72_ARTEK_AKFURNITURE_D2_SH_ATT
 10
1.0145
 20
-0.0527321
 30
0
  0
VERTEX
  8
72_ARTEK_AKFURNITURE_D2_SH_ATT
 10
1.0145
 20
-0.505
 30
0
  0
VERTEX
  8
72_ARTEK_AKFURNITURE_D2_SH_ATT
 10
1.0145
 20
-0.505
 30
0
  0
VERTEX
  8
72_ARTEK_AKFURNITURE_D2_SH_ATT
 10
1.01442
 20
-0.505868
 30
0
  0
VERTEX
  8
72_ARTEK_AKFURNITURE_D2_SH_ATT
 10
1.0142
 20
-0.50671
 30
0
  0
VERTEX
  8
72_ARTEK_AKFURNITURE_D2_SH_ATT
 10
1.01383
 20
-0.5075
 30
0
  0
VERTEX
  8
72_ARTEK_AKFURNITURE_D2_SH_ATT
 10
1.01333
 20
-0.508214
 30
0
  0
VERTEX
  8
72_ARTEK_AKFURNITURE_D2_SH_ATT
 10
1.01271
 20
-0.50883
 30
0
  0
VERTEX
  8
72_ARTEK_AKFURNITURE_D2_SH_ATT
 10
1.012
 20
-0.50933
 30
0
  0
VERTEX
  8
72_ARTEK_AKFURNITURE_D2_SH_ATT
 10
1.01121
 20
-0.509698
 30
0
  0
VERTEX
  8
72_ARTEK_AKFURNITURE_D2_SH_ATT
 10
1.01037
 20
-0.509924
 30
0
  0
VERTEX
  8
72_ARTEK_AKFURNITURE_D2_SH_ATT
 10
1.0095
 20
-0.51
 30
0
  0
VERTEX
  8
72_ARTEK_AKFURNITURE_D2_SH_ATT
 10
0.9945
 20
-0.51
 30
0
  0
VERTEX
  8
72_ARTEK_AKFURNITURE_D2_SH_ATT
 10
0.9945
 20
-0.51
 30
0
  0
VERTEX
  8
72_ARTEK_AKFURNITURE_D2_SH_ATT
 10
0.993632
 20
-0.509924
 30
0
  0
VERTEX
  8
72_ARTEK_AKFURNITURE_D2_SH_ATT
 10
0.99279
 20
-0.509698
 30
0
  0
VERTEX
  8
72_ARTEK_AKFURNITURE_D2_SH_ATT
 10
0.992
 20
-0.50933
 30
0
  0
VERTEX
  8
72_ARTEK_AKFURNITURE_D2_SH_ATT
 10
0.991286
 20
-0.50883
 30
0
  0
VERTEX
  8
72_ARTEK_AKFURNITURE_D2_SH_ATT
 10
0.99067
 20
-0.508214
 30
0
  0
VERTEX
  8
72_ARTEK_AKFURNITURE_D2_SH_ATT
 10
0.99017
 20
-0.5075
 30
0
  0
VERTEX
  8
72_ARTEK_AKFURNITURE_D2_SH_ATT
 10
0.989802
 20
-0.50671
 30
0
  0
VERTEX
  8
72_ARTEK_AKFURNITURE_D2_SH_ATT
 10
0.989576
 20
-0.505868
 30
0
  0
VERTEX
  8
72_ARTEK_AKFURNITURE_D2_SH_ATT
 10
0.9895
 20
-0.505
 30
0
  0
VERTEX
  8
72_ARTEK_AKFURNITURE_D2_SH_ATT
 10
0.9895
 20
-0.0527321
 30
0
  0
VERTEX
  8
72_ARTEK_AKFURNITURE_D2_SH_ATT
 10
0.9895
 20
-0.0527321
 30
0
  0
VERTEX
  8
72_ARTEK_AKFURNITURE_D2_SH_ATT
 10
0.989816
 20
-0.0528794
 30
0
  0
VERTEX
  8
72_ARTEK_AKFURNITURE_D2_SH_ATT
 10
0.990153
 20
-0.0529696
 30
0
  0
VERTEX
  8
72_ARTEK_AKFURNITURE_D2_SH_ATT
 10
0.9905
 20
-0.053
 30
0
  0
VERTEX
  8
72_ARTEK_AKFURNITURE_D2_SH_ATT
 10
1.0135
 20
-0.053
 30
0
  0
SEQEND
  0
POLYLINE
  8
72_ARTEK_AKFURNITURE_D2_SH_ATT
 66
     1
 70
     0
 10
0.0
 20
0.0
 30
0.0
  0
VERTEX
  8
72_ARTEK_AKFURNITURE_D2_SH_ATT
 10
1.9135
 20
-0.053
 30
0
  0
VERTEX
  8
72_ARTEK_AKFURNITURE_D2_SH_ATT
 10
1.91385
 20
-0.0529696
 30
0
  0
VERTEX
  8
72_ARTEK_AKFURNITURE_D2_SH_ATT
 10
1.91418
 20
-0.0528794
 30
0
  0
VERTEX
  8
72_ARTEK_AKFURNITURE_D2_SH_ATT
 10
1.9145
 20
-0.0527321
 30
0
  0
VERTEX
  8
72_ARTEK_AKFURNITURE_D2_SH_ATT
 10
1.9145
 20
-0.505
 30
0
  0
VERTEX
  8
72_ARTEK_AKFURNITURE_D2_SH_ATT
 10
1.9145
 20
-0.505
 30
0
  0
VERTEX
  8
72_ARTEK_AKFURNITURE_D2_SH_ATT
 10
1.91442
 20
-0.505868
 30
0
  0
VERTEX
  8
72_ARTEK_AKFURNITURE_D2_SH_ATT
 10
1.9142
 20
-0.50671
 30
0
  0
VERTEX
  8
72_ARTEK_AKFURNITURE_D2_SH_ATT
 10
1.91383
 20
-0.5075
 30
0
  0
VERTEX
  8
72_ARTEK_AKFURNITURE_D2_SH_ATT
 10
1.91333
 20
-0.508214
 30
0
  0
VERTEX
  8
72_ARTEK_AKFURNITURE_D2_SH_ATT
 10
1.91271
 20
-0.50883
 30
0
  0
VERTEX
  8
72_ARTEK_AKFURNITURE_D2_SH_ATT
 10
1.912
 20
-0.50933
 30
0
  0
VERTEX
  8
72_ARTEK_AKFURNITURE_D2_SH_ATT
 10
1.91121
 20
-0.509698
 30
0
  0
VERTEX
  8
72_ARTEK_AKFURNITURE_D2_SH_ATT
 10
1.91037
 20
-0.509924
 30
0
  0
VERTEX
  8
72_ARTEK_AKFURNITURE_D2_SH_ATT
 10
1.9095
 20
-0.51
 30
0
  0
VERTEX
  8
72_ARTEK_AKFURNITURE_D2_SH_ATT
 10
1.8945
 20
-0.51
 30
0
  0
VERTEX
  8
72_ARTEK_AKFURNITURE_D2_SH_ATT
 10
1.8945
 20
-0.51
 30
0
  0
VERTEX
  8
72_ARTEK_AKFURNITURE_D2_SH_ATT
 10
1.89363
 20
-0.509924
 30
0
  0
VERTEX
  8
72_ARTEK_AKFURNITURE_D2_SH_ATT
 10
1.89279
 20
-0.509698
 30
0
  0
VERTEX
  8
72_ARTEK_AKFURNITURE_D2_SH_ATT
 10
1.892
 20
-0.50933
 30
0
  0
VERTEX
  8
72_ARTEK_AKFURNITURE_D2_SH_ATT
 10
1.89129
 20
-0.50883
 30
0
  0
VERTEX
  8
72_ARTEK_AKFURNITURE_D2_SH_ATT
 10
1.89067
 20
-0.508214
 30
0
  0
VERTEX
  8
72_ARTEK_AKFURNITURE_D2_SH_ATT
 10
1.89017
 20
-0.5075
 30
0
  0
VERTEX
  8
72_ARTEK_AKFURNITURE_D2_SH_ATT
 10
1.8898
 20
-0.50671
 30
0
  0
VERTEX
  8
72_ARTEK_AKFURNITURE_D2_SH_ATT
 10
1.88958
 20
-0.505868
 30
0
  0
VERTEX
  8
72_ARTEK_AKFURNITURE_D2_SH_ATT
 10
1.8895
 20
-0.505
 30
0
  0
VERTEX
  8
72_ARTEK_AKFURNITURE_D2_SH_ATT
 10
1.8895
 20
-0.0527321
 30
0
  0
VERTEX
  8
72_ARTEK_AKFURNITURE_D2_SH_ATT
 10
1.8895
 20
-0.0527321
 30
0
  0
VERTEX
  8
72_ARTEK_AKFURNITURE_D2_SH_ATT
 10
1.88982
 20
-0.0528794
 30
0
  0
VERTEX
  8
72_ARTEK_AKFURNITURE_D2_SH_ATT
 10
1.89015
 20
-0.0529696
 30
0
  0
VERTEX
  8
72_ARTEK_AKFURNITURE_D2_SH_ATT
 10
1.8905
 20
-0.053
 30
0
  0
VERTEX
  8
72_ARTEK_AKFURNITURE_D2_SH_ATT
 10
1.9135
 20
-0.053
 30
0
  0
SEQEND
  0
POLYLINE
  8
72_ARTEK_AKFURNITURE_D2SNAP
 66
     1
 70
     0
 10
0.0
 20
0.0
 30
0.0
  0
VERTEX
  8
72_ARTEK_AKFURNITURE_D2SNAP
 10
0.0145
 20
-0
 30
0
  0
VERTEX
  8
72_ARTEK_AKFURNITURE_D2SNAP
 10
0.0142598
 20
0.00243863
 30
0
  0
VERTEX
  8
72_ARTEK_AKFURNITURE_D2SNAP
 10
0.0135485
 20
0.00478354
 30
0
  0
VERTEX
  8
72_ARTEK_AKFURNITURE_D2SNAP
 10
0.0123934
 20
0.00694463
 30
0
  0
VERTEX
  8
72_ARTEK_AKFURNITURE_D2SNAP
 10
0.0108388
 20
0.00883883
 30
0
  0
VERTEX
  8
72_ARTEK_AKFURNITURE_D2SNAP
 10
0.00894463
 20
0.0103934
 30
0
  0
VERTEX
  8
72_ARTEK_AKFURNITURE_D2SNAP
 10
0.00678354
 20
0.0115485
 30
0
  0
VERTEX
  8
72_ARTEK_AKFURNITURE_D2SNAP
 10
0.00443863
 20
0.0122598
 30
0
  0
VERTEX
  8
72_ARTEK_AKFURNITURE_D2SNAP
 10
0.002
 20
0.0125
 30
0
  0
VERTEX
  8
72_ARTEK_AKFURNITURE_D2SNAP
 10
-0.000438629
 20
0.0122598
 30
0
  0
VERTEX
  8
72_ARTEK_AKFURNITURE_D2SNAP
 10
-0.00278354
 20
0.0115485
 30
0
  0
VERTEX
  8
72_ARTEK_AKFURNITURE_D2SNAP
 10
-0.00494463
 20
0.0103934
 30
0
  0
VERTEX
  8
72_ARTEK_AKFURNITURE_D2SNAP
 10
-0.00683883
 20
0.00883883
 30
0
  0
VERTEX
  8
72_ARTEK_AKFURNITURE_D2SNAP
 10
-0.00839337
 20
0.00694463
 30
0
  0
VERTEX
  8
72_ARTEK_AKFURNITURE_D2SNAP
 10
-0.00954849
 20
0.00478354
 30
0
  0
VERTEX
  8
72_ARTEK_AKFURNITURE_D2SNAP
 10
-0.0102598
 20
0.00243863
 30
0
  0
VERTEX
  8
72_ARTEK_AKFURNITURE_D2SNAP
 10
-0.0105
 20
3.15316e-018
 30
0
  0
VERTEX
  8
72_ARTEK_AKFURNITURE_D2SNAP
 10
-0.0102598
 20
-0.00243863
 30
0
  0
VERTEX
  8
72_ARTEK_AKFURNITURE_D2SNAP
 10
-0.00954849
 20
-0.00478354
 30
0
  0
VERTEX
  8
72_ARTEK_AKFURNITURE_D2SNAP
 10
-0.00839337
 20
-0.00694463
 30
0
  0
VERTEX
  8
72_ARTEK_AKFURNITURE_D2SNAP
 10
-0.00683883
 20
-0.00883883
 30
0
  0
VERTEX
  8
72_ARTEK_AKFURNITURE_D2SNAP
 10
-0.00494463
 20
-0.0103934
 30
0
  0
VERTEX
  8
72_ARTEK_AKFURNITURE_D2SNAP
 10
-0.00278354
 20
-0.0115485
 30
0
  0
VERTEX
  8
72_ARTEK_AKFURNITURE_D2SNAP
 10
-0.000438629
 20
-0.0122598
 30
0
  0
VERTEX
  8
72_ARTEK_AKFURNITURE_D2SNAP
 10
0.002
 20
-0.0125
 30
0
  0
VERTEX
  8
72_ARTEK_AKFURNITURE_D2SNAP
 10
0.00443863
 20
-0.0122598
 30
0
  0
VERTEX
  8
72_ARTEK_AKFURNITURE_D2SNAP
 10
0.00678354
 20
-0.0115485
 30
0
  0
VERTEX
  8
72_ARTEK_AKFURNITURE_D2SNAP
 10
0.00894463
 20
-0.0103934
 30
0
  0
VERTEX
  8
72_ARTEK_AKFURNITURE_D2SNAP
 10
0.0108388
 20
-0.00883883
 30
0
  0
VERTEX
  8
72_ARTEK_AKFURNITURE_D2SNAP
 10
0.0123934
 20
-0.00694463
 30
0
  0
VERTEX
  8
72_ARTEK_AKFURNITURE_D2SNAP
 10
0.0135485
 20
-0.00478354
 30
0
  0
VERTEX
  8
72_ARTEK_AKFURNITURE_D2SNAP
 10
0.0142598
 20
-0.00243863
 30
0
  0
VERTEX
  8
72_ARTEK_AKFURNITURE_D2SNAP
 10
0.0145
 20
-0
 30
0
  0
SEQEND
  0
POLYLINE
  8
72_ARTEK_AKFURNITURE_D2SNAP
 66
     1
 70
     0
 10
0.0
 20
0.0
 30
0.0
  0
VERTEX
  8
72_ARTEK_AKFURNITURE_D2SNAP
 10
-0.0156777
 20
-0.0176777
 30
0
  0
VERTEX
  8
72_ARTEK_AKFURNITURE_D2SNAP
 10
0.0196777
 20
0.0176777
 30
0
  0
SEQEND
  0
POLYLINE
  8
72_ARTEK_AKFURNITURE_D2SNAP
 66
     1
 70
     0
 10
0.0
 20
0.0
 30
0.0
  0
VERTEX
  8
72_ARTEK_AKFURNITURE_D2SNAP
 10
-0.0156777
 20
0.0176777
 30
0
  0
VERTEX
  8
72_ARTEK_AKFURNITURE_D2SNAP
 10
0.0196777
 20
-0.0176777
 30
0
  0
SEQEND
  0
POLYLINE
  8
72_ARTEK_AKFURNITURE_D2_SH_FRA
 66
     1
 70
     0
 10
0.0
 20
0.0
 30
0.0
  0
VERTEX
  8
72_ARTEK_AKFURNITURE_D2_SH_FRA
 10
0.09
 20
-0.001
 30
0
  0
VERTEX
  8
72_ARTEK_AKFURNITURE_D2_SH_FRA
 10
0.09
 20
-0.049
 30
0
  0
VERTEX
  8
72_ARTEK_AKFURNITURE_D2_SH_FRA
 10
0.09
 20
-0.049
 30
0
  0
VERTEX
  8
72_ARTEK_AKFURNITURE_D2_SH_FRA
 10
0.0900192
 20
-0.0491951
 30
0
  0
VERTEX
  8
72_ARTEK_AKFURNITURE_D2_SH_FRA
 10
0.0900761
 20
-0.0493827
 30
0
  0
VERTEX
  8
72_ARTEK_AKFURNITURE_D2_SH_FRA
 10
0.0901685
 20
-0.0495556
 30
0
  0
VERTEX
  8
72_ARTEK_AKFURNITURE_D2_SH_FRA
 10
0.0902929
 20
-0.0497071
 30
0
  0
VERTEX
  8
72_ARTEK_AKFURNITURE_D2_SH_FRA
 10
0.0904444
 20
-0.0498315
 30
0
  0
VERTEX
  8
72_ARTEK_AKFURNITURE_D2_SH_FRA
 10
0.0906173
 20
-0.0499239
 30
0
  0
VERTEX
  8
72_ARTEK_AKFURNITURE_D2_SH_FRA
 10
0.0908049
 20
-0.0499808
 30
0
  0
VERTEX
  8
72_ARTEK_AKFURNITURE_D2_SH_FRA
 10
0.091
 20
-0.05
 30
0
  0
VERTEX
  8
72_ARTEK_AKFURNITURE_D2_SH_FRA
 10
0.113
 20
-0.05
 30
0
  0
VERTEX
  8
72_ARTEK_AKFURNITURE_D2_SH_FRA
 10
0.113
 20
-0.05
 30
0
  0
VERTEX
  8
72_ARTEK_AKFURNITURE_D2_SH_FRA
 10
0.113195
 20
-0.0499808
 30
0
  0
VERTEX
  8
72_ARTEK_AKFURNITURE_D2_SH_FRA
 10
0.113383
 20
-0.0499239
 30
0
  0
VERTEX
  8
72_ARTEK_AKFURNITURE_D2_SH_FRA
 10
0.113556
 20
-0.0498315
 30
0
  0
VERTEX
  8
72_ARTEK_AKFURNITURE_D2_SH_FRA
 10
0.113707
 20
-0.0497071
 30
0
  0
VERTEX
  8
72_ARTEK_AKFURNITURE_D2_SH_FRA
 10
0.113831
 20
-0.0495556
 30
0
  0
VERTEX
  8
72_ARTEK_AKFURNITURE_D2_SH_FRA
 10
0.113924
 20
-0.0493827
 30
0
  0
VERTEX
  8
72_ARTEK_AKFURNITURE_D2_SH_FRA
 10
0.113981
 20
-0.0491951
 30
0
  0
VERTEX
  8
72_ARTEK_AKFURNITURE_D2_SH_FRA
 10
0.114
 20
-0.049
 30
0
  0
VERTEX
  8
72_ARTEK_AKFURNITURE_D2_SH_FRA
 10
0.114
 20
-0.001
 30
0
  0
VERTEX
  8
72_ARTEK_AKFURNITURE_D2_SH_FRA
 10
0.114
 20
-0.001
 30
0
  0
VERTEX
  8
72_ARTEK_AKFURNITURE_D2_SH_FRA
 10
0.113981
 20
-0.00080491
 30
0
  0
VERTEX
  8
72_ARTEK_AKFURNITURE_D2_SH_FRA
 10
0.113924
 20
-0.000617317
 30
0
  0
VERTEX
  8
72_ARTEK_AKFURNITURE_D2_SH_FRA
 10
0.113831
 20
-0.00044443
 30
0
  0
VERTEX
  8
72_ARTEK_AKFURNITURE_D2_SH_FRA
 10
0.113707
 20
-0.000292893
 30
0
  0
VERTEX
  8
72_ARTEK_AKFURNITURE_D2_SH_FRA
 10
0.113556
 20
-0.00016853
 30
0
  0
VERTEX
  8
72_ARTEK_AKFURNITURE_D2_SH_FRA
 10
0.113383
 20
-7.61205e-005
 30
0
  0
VERTEX
  8
72_ARTEK_AKFURNITURE_D2_SH_FRA
 10
0.113195
 20
-1.92147e-005
 30
0
  0
VERTEX
  8
72_ARTEK_AKFURNITURE_D2_SH_FRA
 10
0.113
 20
-2.75286e-019
 30
0
  0
VERTEX
  8
72_ARTEK_AKFURNITURE_D2_SH_FRA
 10
0.091
 20
-0
 30
0
  0
VERTEX
  8
72_ARTEK_AKFURNITURE_D2_SH_FRA
 10
0.091
 20
-0
 30
0
  0
VERTEX
  8
72_ARTEK_AKFURNITURE_D2_SH_FRA
 10
0.0908049
 20
-1.92147e-005
 30
0
  0
VERTEX
  8
72_ARTEK_AKFURNITURE_D2_SH_FRA
 10
0.0906173
 20
-7.61205e-005
 30
0
  0
VERTEX
  8
72_ARTEK_AKFURNITURE_D2_SH_FRA
 10
0.0904444
 20
-0.00016853
 30
0
  0
VERTEX
  8
72_ARTEK_AKFURNITURE_D2_SH_FRA
 10
0.0902929
 20
-0.000292893
 30
0
  0
VERTEX
  8
72_ARTEK_AKFURNITURE_D2_SH_FRA
 10
0.0901685
 20
-0.00044443
 30
0
  0
VERTEX
  8
72_ARTEK_AKFURNITURE_D2_SH_FRA
 10
0.0900761
 20
-0.000617317
 30
0
  0
VERTEX
  8
72_ARTEK_AKFURNITURE_D2_SH_FRA
 10
0.0900192
 20
-0.00080491
 30
0
  0
VERTEX
  8
72_ARTEK_AKFURNITURE_D2_SH_FRA
 10
0.09
 20
-0.001
 30
0
  0
SEQEND
  0
POLYLINE
  8
72_ARTEK_AKFURNITURE_D2_SH_FRA
 66
     1
 70
     0
 10
0.0
 20
0.0
 30
0.0
  0
VERTEX
  8
72_ARTEK_AKFURNITURE_D2_SH_FRA
 10
1.014
 20
-0.001
 30
0
  0
VERTEX
  8
72_ARTEK_AKFURNITURE_D2_SH_FRA
 10
1.014
 20
-0.049
 30
0
  0
VERTEX
  8
72_ARTEK_AKFURNITURE_D2_SH_FRA
 10
1.014
 20
-0.049
 30
0
  0
VERTEX
  8
72_ARTEK_AKFURNITURE_D2_SH_FRA
 10
1.01398
 20
-0.0491951
 30
0
  0
VERTEX
  8
72_ARTEK_AKFURNITURE_D2_SH_FRA
 10
1.01392
 20
-0.0493827
 30
0
  0
VERTEX
  8
72_ARTEK_AKFURNITURE_D2_SH_FRA
 10
1.01383
 20
-0.0495556
 30
0
  0
VERTEX
  8
72_ARTEK_AKFURNITURE_D2_SH_FRA
 10
1.01371
 20
-0.0497071
 30
0
  0
VERTEX
  8
72_ARTEK_AKFURNITURE_D2_SH_FRA
 10
1.01356
 20
-0.0498315
 30
0
  0
VERTEX
  8
72_ARTEK_AKFURNITURE_D2_SH_FRA
 10
1.01338
 20
-0.0499239
 30
0
  0
VERTEX
  8
72_ARTEK_AKFURNITURE_D2_SH_FRA
 10
1.0132
 20
-0.0499808
 30
0
  0
VERTEX
  8
72_ARTEK_AKFURNITURE_D2_SH_FRA
 10
1.013
 20
-0.05
 30
0
  0
VERTEX
  8
72_ARTEK_AKFURNITURE_D2_SH_FRA
 10
0.991
 20
-0.05
 30
0
  0
VERTEX
  8
72_ARTEK_AKFURNITURE_D2_SH_FRA
 10
0.991
 20
-0.05
 30
0
  0
VERTEX
  8
72_ARTEK_AKFURNITURE_D2_SH_FRA
 10
0.990805
 20
-0.0499808
 30
0
  0
VERTEX
  8
72_ARTEK_AKFURNITURE_D2_SH_FRA
 10
0.990617
 20
-0.0499239
 30
0
  0
VERTEX
  8
72_ARTEK_AKFURNITURE_D2_SH_FRA
 10
0.990444
 20
-0.0498315
 30
0
  0
VERTEX
  8
72_ARTEK_AKFURNITURE_D2_SH_FRA
 10
0.990293
 20
-0.0497071
 30
0
  0
VERTEX
  8
72_ARTEK_AKFURNITURE_D2_SH_FRA
 10
0.990169
 20
-0.0495556
 30
0
  0
VERTEX
  8
72_ARTEK_AKFURNITURE_D2_SH_FRA
 10
0.990076
 20
-0.0493827
 30
0
  0
VERTEX
  8
72_ARTEK_AKFURNITURE_D2_SH_FRA
 10
0.990019
 20
-0.0491951
 30
0
  0
VERTEX
  8
72_ARTEK_AKFURNITURE_D2_SH_FRA
 10
0.99
 20
-0.049
 30
0
  0
VERTEX
  8
72_ARTEK_AKFURNITURE_D2_SH_FRA
 10
0.99
 20
-0.001
 30
0
  0
VERTEX
  8
72_ARTEK_AKFURNITURE_D2_SH_FRA
 10
0.99
 20
-0.001
 30
0
  0
VERTEX
  8
72_ARTEK_AKFURNITURE_D2_SH_FRA
 10
0.990019
 20
-0.00080491
 30
0
  0
VERTEX
  8
72_ARTEK_AKFURNITURE_D2_SH_FRA
 10
0.990076
 20
-0.000617317
 30
0
  0
VERTEX
  8
72_ARTEK_AKFURNITURE_D2_SH_FRA
 10
0.990169
 20
-0.00044443
 30
0
  0
VERTEX
  8
72_ARTEK_AKFURNITURE_D2_SH_FRA
 10
0.990293
 20
-0.000292893
 30
0
  0
VERTEX
  8
72_ARTEK_AKFURNITURE_D2_SH_FRA
 10
0.990444
 20
-0.00016853
 30
0
  0
VERTEX
  8
72_ARTEK_AKFURNITURE_D2_SH_FRA
 10
0.990617
 20
-7.61205e-005
 30
0
  0
VERTEX
  8
72_ARTEK_AKFURNITURE_D2_SH_FRA
 10
0.990805
 20
-1.92147e-005
 30
0
  0
VERTEX
  8
72_ARTEK_AKFURNITURE_D2_SH_FRA
 10
0.991
 20
-4.3834e-020
 30
0
  0
VERTEX
  8
72_ARTEK_AKFURNITURE_D2_SH_FRA
 10
1.013
 20
-0
 30
0
  0
VERTEX
  8
72_ARTEK_AKFURNITURE_D2_SH_FRA
 10
1.013
 20
-0
 30
0
  0
VERTEX
  8
72_ARTEK_AKFURNITURE_D2_SH_FRA
 10
1.0132
 20
-1.92147e-005
 30
0
  0
VERTEX
  8
72_ARTEK_AKFURNITURE_D2_SH_FRA
 10
1.01338
 20
-7.61205e-005
 30
0
  0
VERTEX
  8
72_ARTEK_AKFURNITURE_D2_SH_FRA
 10
1.01356
 20
-0.00016853
 30
0
  0
VERTEX
  8
72_ARTEK_AKFURNITURE_D2_SH_FRA
 10
1.01371
 20
-0.000292893
 30
0
  0
VERTEX
  8
72_ARTEK_AKFURNITURE_D2_SH_FRA
 10
1.01383
 20
-0.00044443
 30
0
  0
VERTEX
  8
72_ARTEK_AKFURNITURE_D2_SH_FRA
 10
1.01392
 20
-0.000617317
 30
0
  0
VERTEX
  8
72_ARTEK_AKFURNITURE_D2_SH_FRA
 10
1.01398
 20
-0.00080491
 30
0
  0
VERTEX
  8
72_ARTEK_AKFURNITURE_D2_SH_FRA
 10
1.014
 20
-0.001
 30
0
  0
SEQEND
  0
POLYLINE
  8
72_ARTEK_AKFURNITURE_D2_SH_FRA
 66
     1
 70
     0
 10
0.0
 20
0.0
 30
0.0
  0
VERTEX
  8
72_ARTEK_AKFURNITURE_D2_SH_FRA
 10
1.914
 20
-0.001
 30
0
  0
VERTEX
  8
72_ARTEK_AKFURNITURE_D2_SH_FRA
 10
1.914
 20
-0.049
 30
0
  0
VERTEX
  8
72_ARTEK_AKFURNITURE_D2_SH_FRA
 10
1.914
 20
-0.049
 30
0
  0
VERTEX
  8
72_ARTEK_AKFURNITURE_D2_SH_FRA
 10
1.91398
 20
-0.0491951
 30
0
  0
VERTEX
  8
72_ARTEK_AKFURNITURE_D2_SH_FRA
 10
1.91392
 20
-0.0493827
 30
0
  0
VERTEX
  8
72_ARTEK_AKFURNITURE_D2_SH_FRA
 10
1.91383
 20
-0.0495556
 30
0
  0
VERTEX
  8
72_ARTEK_AKFURNITURE_D2_SH_FRA
 10
1.91371
 20
-0.0497071
 30
0
  0
VERTEX
  8
72_ARTEK_AKFURNITURE_D2_SH_FRA
 10
1.91356
 20
-0.0498315
 30
0
  0
VERTEX
  8
72_ARTEK_AKFURNITURE_D2_SH_FRA
 10
1.91338
 20
-0.0499239
 30
0
  0
VERTEX
  8
72_ARTEK_AKFURNITURE_D2_SH_FRA
 10
1.9132
 20
-0.0499808
 30
0
  0
VERTEX
  8
72_ARTEK_AKFURNITURE_D2_SH_FRA
 10
1.913
 20
-0.05
 30
0
  0
VERTEX
  8
72_ARTEK_AKFURNITURE_D2_SH_FRA
 10
1.891
 20
-0.05
 30
0
  0
VERTEX
  8
72_ARTEK_AKFURNITURE_D2_SH_FRA
 10
1.891
 20
-0.05
 30
0
  0
VERTEX
  8
72_ARTEK_AKFURNITURE_D2_SH_FRA
 10
1.8908
 20
-0.0499808
 30
0
  0
VERTEX
  8
72_ARTEK_AKFURNITURE_D2_SH_FRA
 10
1.89062
 20
-0.0499239
 30
0
  0
VERTEX
  8
72_ARTEK_AKFURNITURE_D2_SH_FRA
 10
1.89044
 20
-0.0498315
 30
0
  0
VERTEX
  8
72_ARTEK_AKFURNITURE_D2_SH_FRA
 10
1.89029
 20
-0.0497071
 30
0
  0
VERTEX
  8
72_ARTEK_AKFURNITURE_D2_SH_FRA
 10
1.89017
 20
-0.0495556
 30
0
  0
VERTEX
  8
72_ARTEK_AKFURNITURE_D2_SH_FRA
 10
1.89008
 20
-0.0493827
 30
0
  0
VERTEX
  8
72_ARTEK_AKFURNITURE_D2_SH_FRA
 10
1.89002
 20
-0.0491951
 30
0
  0
VERTEX
  8
72_ARTEK_AKFURNITURE_D2_SH_FRA
 10
1.89
 20
-0.049
 30
0
  0
VERTEX
  8
72_ARTEK_AKFURNITURE_D2_SH_FRA
 10
1.89
 20
-0.001
 30
0
  0
VERTEX
  8
72_ARTEK_AKFURNITURE_D2_SH_FRA
 10
1.89
 20
-0.001
 30
0
  0
VERTEX
  8
72_ARTEK_AKFURNITURE_D2_SH_FRA
 10
1.89002
 20
-0.00080491
 30
0
  0
VERTEX
  8
72_ARTEK_AKFURNITURE_D2_SH_FRA
 10
1.89008
 20
-0.000617317
 30
0
  0
VERTEX
  8
72_ARTEK_AKFURNITURE_D2_SH_FRA
 10
1.89017
 20
-0.00044443
 30
0
  0
VERTEX
  8
72_ARTEK_AKFURNITURE_D2_SH_FRA
 10
1.89029
 20
-0.000292893
 30
0
  0
VERTEX
  8
72_ARTEK_AKFURNITURE_D2_SH_FRA
 10
1.89044
 20
-0.00016853
 30
0
  0
VERTEX
  8
72_ARTEK_AKFURNITURE_D2_SH_FRA
 10
1.89062
 20
-7.61205e-005
 30
0
  0
VERTEX
  8
72_ARTEK_AKFURNITURE_D2_SH_FRA
 10
1.8908
 20
-1.92147e-005
 30
0
  0
VERTEX
  8
72_ARTEK_AKFURNITURE_D2_SH_FRA
 10
1.891
 20
-7.55977e-020
 30
0
  0
VERTEX
  8
72_ARTEK_AKFURNITURE_D2_SH_FRA
 10
1.913
 20
-0
 30
0
  0
VERTEX
  8
72_ARTEK_AKFURNITURE_D2_SH_FRA
 10
1.913
 20
-0
 30
0
  0
VERTEX
  8
72_ARTEK_AKFURNITURE_D2_SH_FRA
 10
1.9132
 20
-1.92147e-005
 30
0
  0
VERTEX
  8
72_ARTEK_AKFURNITURE_D2_SH_FRA
 10
1.91338
 20
-7.61205e-005
 30
0
  0
VERTEX
  8
72_ARTEK_AKFURNITURE_D2_SH_FRA
 10
1.91356
 20
-0.00016853
 30
0
  0
VERTEX
  8
72_ARTEK_AKFURNITURE_D2_SH_FRA
 10
1.91371
 20
-0.000292893
 30
0
  0
VERTEX
  8
72_ARTEK_AKFURNITURE_D2_SH_FRA
 10
1.91383
 20
-0.00044443
 30
0
  0
VERTEX
  8
72_ARTEK_AKFURNITURE_D2_SH_FRA
 10
1.91392
 20
-0.000617317
 30
0
  0
VERTEX
  8
72_ARTEK_AKFURNITURE_D2_SH_FRA
 10
1.91398
 20
-0.00080491
 30
0
  0
VERTEX
  8
72_ARTEK_AKFURNITURE_D2_SH_FRA
 10
1.914
 20
-0.001
 30
0
  0
SEQEND
  0
POLYLINE
  8
72_ARTEK_AKFURNITURE_D2SNAP
 66
     1
 70
     0
 10
0.0
 20
0.0
 30
0.0
  0
VERTEX
  8
72_ARTEK_AKFURNITURE_D2SNAP
 10
0.0145
 20
-0
 30
0
  0
VERTEX
  8
72_ARTEK_AKFURNITURE_D2SNAP
 10
0.0142598
 20
0.00243863
 30
0
  0
VERTEX
  8
72_ARTEK_AKFURNITURE_D2SNAP
 10
0.0135485
 20
0.00478354
 30
0
  0
VERTEX
  8
72_ARTEK_AKFURNITURE_D2SNAP
 10
0.0123934
 20
0.00694463
 30
0
  0
VERTEX
  8
72_ARTEK_AKFURNITURE_D2SNAP
 10
0.0108388
 20
0.00883883
 30
0
  0
VERTEX
  8
72_ARTEK_AKFURNITURE_D2SNAP
 10
0.00894463
 20
0.0103934
 30
0
  0
VERTEX
  8
72_ARTEK_AKFURNITURE_D2SNAP
 10
0.00678354
 20
0.0115485
 30
0
  0
VERTEX
  8
72_ARTEK_AKFURNITURE_D2SNAP
 10
0.00443863
 20
0.0122598
 30
0
  0
VERTEX
  8
72_ARTEK_AKFURNITURE_D2SNAP
 10
0.002
 20
0.0125
 30
0
  0
VERTEX
  8
72_ARTEK_AKFURNITURE_D2SNAP
 10
-0.000438629
 20
0.0122598
 30
0
  0
VERTEX
  8
72_ARTEK_AKFURNITURE_D2SNAP
 10
-0.00278354
 20
0.0115485
 30
0
  0
VERTEX
  8
72_ARTEK_AKFURNITURE_D2SNAP
 10
-0.00494463
 20
0.0103934
 30
0
  0
VERTEX
  8
72_ARTEK_AKFURNITURE_D2SNAP
 10
-0.00683883
 20
0.00883883
 30
0
  0
VERTEX
  8
72_ARTEK_AKFURNITURE_D2SNAP
 10
-0.00839337
 20
0.00694463
 30
0
  0
VERTEX
  8
72_ARTEK_AKFURNITURE_D2SNAP
 10
-0.00954849
 20
0.00478354
 30
0
  0
VERTEX
  8
72_ARTEK_AKFURNITURE_D2SNAP
 10
-0.0102598
 20
0.00243863
 30
0
  0
VERTEX
  8
72_ARTEK_AKFURNITURE_D2SNAP
 10
-0.0105
 20
3.15316e-018
 30
0
  0
VERTEX
  8
72_ARTEK_AKFURNITURE_D2SNAP
 10
-0.0102598
 20
-0.00243863
 30
0
  0
VERTEX
  8
72_ARTEK_AKFURNITURE_D2SNAP
 10
-0.00954849
 20
-0.00478354
 30
0
  0
VERTEX
  8
72_ARTEK_AKFURNITURE_D2SNAP
 10
-0.00839337
 20
-0.00694463
 30
0
  0
VERTEX
  8
72_ARTEK_AKFURNITURE_D2SNAP
 10
-0.00683883
 20
-0.00883883
 30
0
  0
VERTEX
  8
72_ARTEK_AKFURNITURE_D2SNAP
 10
-0.00494463
 20
-0.0103934
 30
0
  0
VERTEX
  8
72_ARTEK_AKFURNITURE_D2SNAP
 10
-0.00278354
 20
-0.0115485
 30
0
  0
VERTEX
  8
72_ARTEK_AKFURNITURE_D2SNAP
 10
-0.000438629
 20
-0.0122598
 30
0
  0
VERTEX
  8
72_ARTEK_AKFURNITURE_D2SNAP
 10
0.002
 20
-0.0125
 30
0
  0
VERTEX
  8
72_ARTEK_AKFURNITURE_D2SNAP
 10
0.00443863
 20
-0.0122598
 30
0
  0
VERTEX
  8
72_ARTEK_AKFURNITURE_D2SNAP
 10
0.00678354
 20
-0.0115485
 30
0
  0
VERTEX
  8
72_ARTEK_AKFURNITURE_D2SNAP
 10
0.00894463
 20
-0.0103934
 30
0
  0
VERTEX
  8
72_ARTEK_AKFURNITURE_D2SNAP
 10
0.0108388
 20
-0.00883883
 30
0
  0
VERTEX
  8
72_ARTEK_AKFURNITURE_D2SNAP
 10
0.0123934
 20
-0.00694463
 30
0
  0
VERTEX
  8
72_ARTEK_AKFURNITURE_D2SNAP
 10
0.0135485
 20
-0.00478354
 30
0
  0
VERTEX
  8
72_ARTEK_AKFURNITURE_D2SNAP
 10
0.0142598
 20
-0.00243863
 30
0
  0
VERTEX
  8
72_ARTEK_AKFURNITURE_D2SNAP
 10
0.0145
 20
-0
 30
0
  0
SEQEND
  0
POLYLINE
  8
72_ARTEK_AKFURNITURE_D2SNAP
 66
     1
 70
     0
 10
0.0
 20
0.0
 30
0.0
  0
VERTEX
  8
72_ARTEK_AKFURNITURE_D2SNAP
 10
-0.0156777
 20
-0.0176777
 30
0
  0
VERTEX
  8
72_ARTEK_AKFURNITURE_D2SNAP
 10
0.0196777
 20
0.0176777
 30
0
  0
SEQEND
  0
POLYLINE
  8
72_ARTEK_AKFURNITURE_D2SNAP
 66
     1
 70
     0
 10
0.0
 20
0.0
 30
0.0
  0
VERTEX
  8
72_ARTEK_AKFURNITURE_D2SNAP
 10
-0.0156777
 20
0.0176777
 30
0
  0
VERTEX
  8
72_ARTEK_AKFURNITURE_D2SNAP
 10
0.0196777
 20
-0.0176777
 30
0
  0
SEQEND
  0
POLYLINE
  8
72_ARTEK_AKFURNITURE_D2_SH_SHE
 66
     1
 70
     0
 10
0.0
 20
0.0
 30
0.0
  0
VERTEX
  8
72_ARTEK_AKFURNITURE_D2_SH_SHE
 10
0.003
 20
-0.55
 30
0
  0
VERTEX
  8
72_ARTEK_AKFURNITURE_D2_SH_SHE
 10
2.001
 20
-0.55
 30
0
  0
VERTEX
  8
72_ARTEK_AKFURNITURE_D2_SH_SHE
 10
2.001
 20
-0.55
 30
0
  0
VERTEX
  8
72_ARTEK_AKFURNITURE_D2_SH_SHE
 10
2.0012
 20
-0.549981
 30
0
  0
VERTEX
  8
72_ARTEK_AKFURNITURE_D2_SH_SHE
 10
2.00138
 20
-0.549924
 30
0
  0
VERTEX
  8
72_ARTEK_AKFURNITURE_D2_SH_SHE
 10
2.00156
 20
-0.549831
 30
0
  0
VERTEX
  8
72_ARTEK_AKFURNITURE_D2_SH_SHE
 10
2.00171
 20
-0.549707
 30
0
  0
VERTEX
  8
72_ARTEK_AKFURNITURE_D2_SH_SHE
 10
2.00183
 20
-0.549556
 30
0
  0
VERTEX
  8
72_ARTEK_AKFURNITURE_D2_SH_SHE
 10
2.00192
 20
-0.549383
 30
0
  0
VERTEX
  8
72_ARTEK_AKFURNITURE_D2_SH_SHE
 10
2.00198
 20
-0.549195
 30
0
  0
VERTEX
  8
72_ARTEK_AKFURNITURE_D2_SH_SHE
 10
2.002
 20
-0.549
 30
0
  0
VERTEX
  8
72_ARTEK_AKFURNITURE_D2_SH_SHE
 10
2.002
 20
-0.349
 30
0
  0
VERTEX
  8
72_ARTEK_AKFURNITURE_D2_SH_SHE
 10
0.002
 20
-0.349
 30
0
  0
VERTEX
  8
72_ARTEK_AKFURNITURE_D2_SH_SHE
 10
0.002
 20
-0.549
 30
0
  0
VERTEX
  8
72_ARTEK_AKFURNITURE_D2_SH_SHE
 10
0.002
 20
-0.549
 30
0
  0
VERTEX
  8
72_ARTEK_AKFURNITURE_D2_SH_SHE
 10
0.00201519
 20
-0.549174
 30
0
  0
VERTEX
  8
72_ARTEK_AKFURNITURE_D2_SH_SHE
 10
0.00206031
 20
-0.549342
 30
0
  0
VERTEX
  8
72_ARTEK_AKFURNITURE_D2_SH_SHE
 10
0.00213397
 20
-0.5495
 30
0
  0
VERTEX
  8
72_ARTEK_AKFURNITURE_D2_SH_SHE
 10
0.00223396
 20
-0.549643
 30
0
  0
VERTEX
  8
72_ARTEK_AKFURNITURE_D2_SH_SHE
 10
0.00235721
 20
-0.549766
 30
0
  0
VERTEX
  8
72_ARTEK_AKFURNITURE_D2_SH_SHE
 10
0.0025
 20
-0.549866
 30
0
  0
VERTEX
  8
72_ARTEK_AKFURNITURE_D2_SH_SHE
 10
0.00265798
 20
-0.54994
 30
0
  0
VERTEX
  8
72_ARTEK_AKFURNITURE_D2_SH_SHE
 10
0.00282635
 20
-0.549985
 30
0
  0
VERTEX
  8
72_ARTEK_AKFURNITURE_D2_SH_SHE
 10
0.003
 20
-0.55
 30
0
  0
SEQEND
  0
POLYLINE
  8
72_ARTEK_AKFURNITURE_D2_SH_SHE
 66
     1
 70
     0
 10
0.0
 20
0.0
 30
0.0
  0
VERTEX
  8
72_ARTEK_AKFURNITURE_D2_SH_SHE
 10
2.002
 20
-0.349
 30
0
  0
VERTEX
  8
72_ARTEK_AKFURNITURE_D2_SH_SHE
 10
2.002
 20
-0.001
 30
0
  0
VERTEX
  8
72_ARTEK_AKFURNITURE_D2_SH_SHE
 10
2.002
 20
-0.001
 30
0
  0
VERTEX
  8
72_ARTEK_AKFURNITURE_D2_SH_SHE
 10
2.00198
 20
-0.00080491
 30
0
  0
VERTEX
  8
72_ARTEK_AKFURNITURE_D2_SH_SHE
 10
2.00192
 20
-0.000617317
 30
0
  0
VERTEX
  8
72_ARTEK_AKFURNITURE_D2_SH_SHE
 10
2.00183
 20
-0.00044443
 30
0
  0
VERTEX
  8
72_ARTEK_AKFURNITURE_D2_SH_SHE
 10
2.00171
 20
-0.000292893
 30
0
  0
VERTEX
  8
72_ARTEK_AKFURNITURE_D2_SH_SHE
 10
2.00156
 20
-0.00016853
 30
0
  0
VERTEX
  8
72_ARTEK_AKFURNITURE_D2_SH_SHE
 10
2.00138
 20
-7.61205e-005
 30
0
  0
VERTEX
  8
72_ARTEK_AKFURNITURE_D2_SH_SHE
 10
2.0012
 20
-1.92147e-005
 30
0
  0
VERTEX
  8
72_ARTEK_AKFURNITURE_D2_SH_SHE
 10
2.001
 20
4.08164e-019
 30
0
  0
VERTEX
  8
72_ARTEK_AKFURNITURE_D2_SH_SHE
 10
1.9155
 20
-0
 30
0
  0
VERTEX
  8
72_ARTEK_AKFURNITURE_D2_SH_SHE
 10
1.9155
 20
-0.051
 30
0
  0
VERTEX
  8
72_ARTEK_AKFURNITURE_D2_SH_SHE
 10
1.9155
 20
-0.051
 30
0
  0
VERTEX
  8
72_ARTEK_AKFURNITURE_D2_SH_SHE
 10
1.91547
 20
-0.0513473
 30
0
  0
VERTEX
  8
72_ARTEK_AKFURNITURE_D2_SH_SHE
 10
1.91538
 20
-0.051684
 30
0
  0
VERTEX
  8
72_ARTEK_AKFURNITURE_D2_SH_SHE
 10
1.91523
 20
-0.052
 30
0
  0
VERTEX
  8
72_ARTEK_AKFURNITURE_D2_SH_SHE
 10
1.91503
 20
-0.0522856
 30
0
  0
VERTEX
  8
72_ARTEK_AKFURNITURE_D2_SH_SHE
 10
1.91479
 20
-0.0525321
 30
0
  0
VERTEX
  8
72_ARTEK_AKFURNITURE_D2_SH_SHE
 10
1.9145
 20
-0.0527321
 30
0
  0
VERTEX
  8
72_ARTEK_AKFURNITURE_D2_SH_SHE
 10
1.91418
 20
-0.0528794
 30
0
  0
VERTEX
  8
72_ARTEK_AKFURNITURE_D2_SH_SHE
 10
1.91385
 20
-0.0529696
 30
0
  0
VERTEX
  8
72_ARTEK_AKFURNITURE_D2_SH_SHE
 10
1.9135
 20
-0.053
 30
0
  0
VERTEX
  8
72_ARTEK_AKFURNITURE_D2_SH_SHE
 10
1.8905
 20
-0.053
 30
0
  0
VERTEX
  8
72_ARTEK_AKFURNITURE_D2_SH_SHE
 10
1.8905
 20
-0.053
 30
0
  0
VERTEX
  8
72_ARTEK_AKFURNITURE_D2_SH_SHE
 10
1.89015
 20
-0.0529696
 30
0
  0
VERTEX
  8
72_ARTEK_AKFURNITURE_D2_SH_SHE
 10
1.88982
 20
-0.0528794
 30
0
  0
VERTEX
  8
72_ARTEK_AKFURNITURE_D2_SH_SHE
 10
1.8895
 20
-0.0527321
 30
0
  0
VERTEX
  8
72_ARTEK_AKFURNITURE_D2_SH_SHE
 10
1.88921
 20
-0.0525321
 30
0
  0
VERTEX
  8
72_ARTEK_AKFURNITURE_D2_SH_SHE
 10
1.88897
 20
-0.0522856
 30
0
  0
VERTEX
  8
72_ARTEK_AKFURNITURE_D2_SH_SHE
 10
1.88877
 20
-0.052
 30
0
  0
VERTEX
  8
72_ARTEK_AKFURNITURE_D2_SH_SHE
 10
1.88862
 20
-0.051684
 30
0
  0
VERTEX
  8
72_ARTEK_AKFURNITURE_D2_SH_SHE
 10
1.88853
 20
-0.0513473
 30
0
  0
VERTEX
  8
72_ARTEK_AKFURNITURE_D2_SH_SHE
 10
1.8885
 20
-0.051
 30
0
  0
VERTEX
  8
72_ARTEK_AKFURNITURE_D2_SH_SHE
 10
1.8885
 20
-0
 30
0
  0
VERTEX
  8
72_ARTEK_AKFURNITURE_D2_SH_SHE
 10
1.0155
 20
-0
 30
0
  0
VERTEX
  8
72_ARTEK_AKFURNITURE_D2_SH_SHE
 10
1.0155
 20
-0.051
 30
0
  0
VERTEX
  8
72_ARTEK_AKFURNITURE_D2_SH_SHE
 10
1.0155
 20
-0.051
 30
0
  0
VERTEX
  8
72_ARTEK_AKFURNITURE_D2_SH_SHE
 10
1.01547
 20
-0.0513473
 30
0
  0
VERTEX
  8
72_ARTEK_AKFURNITURE_D2_SH_SHE
 10
1.01538
 20
-0.051684
 30
0
  0
VERTEX
  8
72_ARTEK_AKFURNITURE_D2_SH_SHE
 10
1.01523
 20
-0.052
 30
0
  0
VERTEX
  8
72_ARTEK_AKFURNITURE_D2_SH_SHE
 10
1.01503
 20
-0.0522856
 30
0
  0
VERTEX
  8
72_ARTEK_AKFURNITURE_D2_SH_SHE
 10
1.01479
 20
-0.0525321
 30
0
  0
VERTEX
  8
72_ARTEK_AKFURNITURE_D2_SH_SHE
 10
1.0145
 20
-0.0527321
 30
0
  0
VERTEX
  8
72_ARTEK_AKFURNITURE_D2_SH_SHE
 10
1.01418
 20
-0.0528794
 30
0
  0
VERTEX
  8
72_ARTEK_AKFURNITURE_D2_SH_SHE
 10
1.01385
 20
-0.0529696
 30
0
  0
VERTEX
  8
72_ARTEK_AKFURNITURE_D2_SH_SHE
 10
1.0135
 20
-0.053
 30
0
  0
VERTEX
  8
72_ARTEK_AKFURNITURE_D2_SH_SHE
 10
0.9905
 20
-0.053
 30
0
  0
VERTEX
  8
72_ARTEK_AKFURNITURE_D2_SH_SHE
 10
0.9905
 20
-0.053
 30
0
  0
VERTEX
  8
72_ARTEK_AKFURNITURE_D2_SH_SHE
 10
0.99011
 20
-0.0529616
 30
0
  0
VERTEX
  8
72_ARTEK_AKFURNITURE_D2_SH_SHE
 10
0.989735
 20
-0.0528478
 30
0
  0
VERTEX
  8
72_ARTEK_AKFURNITURE_D2_SH_SHE
 10
0.989389
 20
-0.0526629
 30
0
  0
VERTEX
  8
72_ARTEK_AKFURNITURE_D2_SH_SHE
 10
0.989086
 20
-0.0524142
 30
0
  0
VERTEX
  8
72_ARTEK_AKFURNITURE_D2_SH_SHE
 10
0.988837
 20
-0.0521111
 30
0
  0
VERTEX
  8
72_ARTEK_AKFURNITURE_D2_SH_SHE
 10
0.988652
 20
-0.0517654
 30
0
  0
VERTEX
  8
72_ARTEK_AKFURNITURE_D2_SH_SHE
 10
0.988538
 20
-0.0513902
 30
0
  0
VERTEX
  8
72_ARTEK_AKFURNITURE_D2_SH_SHE
 10
0.9885
 20
-0.051
 30
0
  0
VERTEX
  8
72_ARTEK_AKFURNITURE_D2_SH_SHE
 10
0.9885
 20
-0
 30
0
  0
VERTEX
  8
72_ARTEK_AKFURNITURE_D2_SH_SHE
 10
0.1155
 20
-0
 30
0
  0
VERTEX
  8
72_ARTEK_AKFURNITURE_D2_SH_SHE
 10
0.1155
 20
-0.051
 30
0
  0
VERTEX
  8
72_ARTEK_AKFURNITURE_D2_SH_SHE
 10
0.1155
 20
-0.051
 30
0
  0
VERTEX
  8
72_ARTEK_AKFURNITURE_D2_SH_SHE
 10
0.11547
 20
-0.0513473
 30
0
  0
VERTEX
  8
72_ARTEK_AKFURNITURE_D2_SH_SHE
 10
0.115379
 20
-0.051684
 30
0
  0
VERTEX
  8
72_ARTEK_AKFURNITURE_D2_SH_SHE
 10
0.115232
 20
-0.052
 30
0
  0
VERTEX
  8
72_ARTEK_AKFURNITURE_D2_SH_SHE
 10
0.115032
 20
-0.0522856
 30
0
  0
VERTEX
  8
72_ARTEK_AKFURNITURE_D2_SH_SHE
 10
0.114786
 20
-0.0525321
 30
0
  0
VERTEX
  8
72_ARTEK_AKFURNITURE_D2_SH_SHE
 10
0.1145
 20
-0.0527321
 30
0
  0
VERTEX
  8
72_ARTEK_AKFURNITURE_D2_SH_SHE
 10
0.114184
 20
-0.0528794
 30
0
  0
VERTEX
  8
72_ARTEK_AKFURNITURE_D2_SH_SHE
 10
0.113847
 20
-0.0529696
 30
0
  0
VERTEX
  8
72_ARTEK_AKFURNITURE_D2_SH_SHE
 10
0.1135
 20
-0.053
 30
0
  0
VERTEX
  8
72_ARTEK_AKFURNITURE_D2_SH_SHE
 10
0.0905
 20
-0.053
 30
0
  0
VERTEX
  8
72_ARTEK_AKFURNITURE_D2_SH_SHE
 10
0.0905
 20
-0.053
 30
0
  0
VERTEX
  8
72_ARTEK_AKFURNITURE_D2_SH_SHE
 10
0.0901527
 20
-0.0529696
 30
0
  0
VERTEX
  8
72_ARTEK_AKFURNITURE_D2_SH_SHE
 10
0.089816
 20
-0.0528794
 30
0
  0
VERTEX
  8
72_ARTEK_AKFURNITURE_D2_SH_SHE
 10
0.0895
 20
-0.0527321
 30
0
  0
VERTEX
  8
72_ARTEK_AKFURNITURE_D2_SH_SHE
 10
0.0892144
 20
-0.0525321
 30
0
  0
VERTEX
  8
72_ARTEK_AKFURNITURE_D2_SH_SHE
 10
0.0889679
 20
-0.0522856
 30
0
  0
VERTEX
  8
72_ARTEK_AKFURNITURE_D2_SH_SHE
 10
0.0887679
 20
-0.052
 30
0
  0
VERTEX
  8
72_ARTEK_AKFURNITURE_D2_SH_SHE
 10
0.0886206
 20
-0.051684
 30
0
  0
VERTEX
  8
72_ARTEK_AKFURNITURE_D2_SH_SHE
 10
0.0885304
 20
-0.0513473
 30
0
  0
VERTEX
  8
72_ARTEK_AKFURNITURE_D2_SH_SHE
 10
0.0885
 20
-0.051
 30
0
  0
VERTEX
  8
72_ARTEK_AKFURNITURE_D2_SH_SHE
 10
0.0885
 20
-0
 30
0
  0
VERTEX
  8
72_ARTEK_AKFURNITURE_D2_SH_SHE
 10
0.003
 20
-0
 30
0
  0
VERTEX
  8
72_ARTEK_AKFURNITURE_D2_SH_SHE
 10
0.003
 20
-0
 30
0
  0
VERTEX
  8
72_ARTEK_AKFURNITURE_D2_SH_SHE
 10
0.00280491
 20
-1.92147e-005
 30
0
  0
VERTEX
  8
72_ARTEK_AKFURNITURE_D2_SH_SHE
 10
0.00261732
 20
-7.61205e-005
 30
0
  0
VERTEX
  8
72_ARTEK_AKFURNITURE_D2_SH_SHE
 10
0.00244443
 20
-0.00016853
 30
0
  0
VERTEX
  8
72_ARTEK_AKFURNITURE_D2_SH_SHE
 10
0.00229289
 20
-0.000292893
 30
0
  0
VERTEX
  8
72_ARTEK_AKFURNITURE_D2_SH_SHE
 10
0.00216853
 20
-0.00044443
 30
0
  0
VERTEX
  8
72_ARTEK_AKFURNITURE_D2_SH_SHE
 10
0.00207612
 20
-0.000617317
 30
0
  0
VERTEX
  8
72_ARTEK_AKFURNITURE_D2_SH_SHE
 10
0.00201921
 20
-0.00080491
 30
0
  0
VERTEX
  8
72_ARTEK_AKFURNITURE_D2_SH_SHE
 10
0.002
 20
-0.001
 30
0
  0
VERTEX
  8
72_ARTEK_AKFURNITURE_D2_SH_SHE
 10
0.002
 20
-0.349
 30
0
  0
VERTEX
  8
72_ARTEK_AKFURNITURE_D2_SH_SHE
 10
2.002
 20
-0.349
 30
0
  0
SEQEND
  0
POLYLINE
  8
72_ARTEK_AKFURNITURE_D2SNAP
 66
     1
 70
     0
 10
0.0
 20
0.0
 30
0.0
  0
VERTEX
  8
72_ARTEK_AKFURNITURE_D2SNAP
 10
0.0145
 20
-0
 30
0
  0
VERTEX
  8
72_ARTEK_AKFURNITURE_D2SNAP
 10
0.0142598
 20
0.00243863
 30
0
  0
VERTEX
  8
72_ARTEK_AKFURNITURE_D2SNAP
 10
0.0135485
 20
0.00478354
 30
0
  0
VERTEX
  8
72_ARTEK_AKFURNITURE_D2SNAP
 10
0.0123934
 20
0.00694463
 30
0
  0
VERTEX
  8
72_ARTEK_AKFURNITURE_D2SNAP
 10
0.0108388
 20
0.00883883
 30
0
  0
VERTEX
  8
72_ARTEK_AKFURNITURE_D2SNAP
 10
0.00894463
 20
0.0103934
 30
0
  0
VERTEX
  8
72_ARTEK_AKFURNITURE_D2SNAP
 10
0.00678354
 20
0.0115485
 30
0
  0
VERTEX
  8
72_ARTEK_AKFURNITURE_D2SNAP
 10
0.00443863
 20
0.0122598
 30
0
  0
VERTEX
  8
72_ARTEK_AKFURNITURE_D2SNAP
 10
0.002
 20
0.0125
 30
0
  0
VERTEX
  8
72_ARTEK_AKFURNITURE_D2SNAP
 10
-0.000438629
 20
0.0122598
 30
0
  0
VERTEX
  8
72_ARTEK_AKFURNITURE_D2SNAP
 10
-0.00278354
 20
0.0115485
 30
0
  0
VERTEX
  8
72_ARTEK_AKFURNITURE_D2SNAP
 10
-0.00494463
 20
0.0103934
 30
0
  0
VERTEX
  8
72_ARTEK_AKFURNITURE_D2SNAP
 10
-0.00683883
 20
0.00883883
 30
0
  0
VERTEX
  8
72_ARTEK_AKFURNITURE_D2SNAP
 10
-0.00839337
 20
0.00694463
 30
0
  0
VERTEX
  8
72_ARTEK_AKFURNITURE_D2SNAP
 10
-0.00954849
 20
0.00478354
 30
0
  0
VERTEX
  8
72_ARTEK_AKFURNITURE_D2SNAP
 10
-0.0102598
 20
0.00243863
 30
0
  0
VERTEX
  8
72_ARTEK_AKFURNITURE_D2SNAP
 10
-0.0105
 20
3.15316e-018
 30
0
  0
VERTEX
  8
72_ARTEK_AKFURNITURE_D2SNAP
 10
-0.0102598
 20
-0.00243863
 30
0
  0
VERTEX
  8
72_ARTEK_AKFURNITURE_D2SNAP
 10
-0.00954849
 20
-0.00478354
 30
0
  0
VERTEX
  8
72_ARTEK_AKFURNITURE_D2SNAP
 10
-0.00839337
 20
-0.00694463
 30
0
  0
VERTEX
  8
72_ARTEK_AKFURNITURE_D2SNAP
 10
-0.00683883
 20
-0.00883883
 30
0
  0
VERTEX
  8
72_ARTEK_AKFURNITURE_D2SNAP
 10
-0.00494463
 20
-0.0103934
 30
0
  0
VERTEX
  8
72_ARTEK_AKFURNITURE_D2SNAP
 10
-0.00278354
 20
-0.0115485
 30
0
  0
VERTEX
  8
72_ARTEK_AKFURNITURE_D2SNAP
 10
-0.000438629
 20
-0.0122598
 30
0
  0
VERTEX
  8
72_ARTEK_AKFURNITURE_D2SNAP
 10
0.002
 20
-0.0125
 30
0
  0
VERTEX
  8
72_ARTEK_AKFURNITURE_D2SNAP
 10
0.00443863
 20
-0.0122598
 30
0
  0
VERTEX
  8
72_ARTEK_AKFURNITURE_D2SNAP
 10
0.00678354
 20
-0.0115485
 30
0
  0
VERTEX
  8
72_ARTEK_AKFURNITURE_D2SNAP
 10
0.00894463
 20
-0.0103934
 30
0
  0
VERTEX
  8
72_ARTEK_AKFURNITURE_D2SNAP
 10
0.0108388
 20
-0.00883883
 30
0
  0
VERTEX
  8
72_ARTEK_AKFURNITURE_D2SNAP
 10
0.0123934
 20
-0.00694463
 30
0
  0
VERTEX
  8
72_ARTEK_AKFURNITURE_D2SNAP
 10
0.0135485
 20
-0.00478354
 30
0
  0
VERTEX
  8
72_ARTEK_AKFURNITURE_D2SNAP
 10
0.0142598
 20
-0.00243863
 30
0
  0
VERTEX
  8
72_ARTEK_AKFURNITURE_D2SNAP
 10
0.0145
 20
-0
 30
0
  0
SEQEND
  0
POLYLINE
  8
72_ARTEK_AKFURNITURE_D2SNAP
 66
     1
 70
     0
 10
0.0
 20
0.0
 30
0.0
  0
VERTEX
  8
72_ARTEK_AKFURNITURE_D2SNAP
 10
-0.0156777
 20
-0.0176777
 30
0
  0
VERTEX
  8
72_ARTEK_AKFURNITURE_D2SNAP
 10
0.0196777
 20
0.0176777
 30
0
  0
SEQEND
  0
POLYLINE
  8
72_ARTEK_AKFURNITURE_D2SNAP
 66
     1
 70
     0
 10
0.0
 20
0.0
 30
0.0
  0
VERTEX
  8
72_ARTEK_AKFURNITURE_D2SNAP
 10
-0.0156777
 20
0.0176777
 30
0
  0
VERTEX
  8
72_ARTEK_AKFURNITURE_D2SNAP
 10
0.0196777
 20
-0.0176777
 30
0
  0
SEQEND
  0
ENDBLK
  8
0
  0
ENDSEC
  0
SECTION
  2
ENTITIES
  0
INSERT
  8
72OFGO2D01_GRAFIK
  2
OB2D__000000
 10
0.0
 20
0.0
 30
0.0
  0
ENDSEC
  0
EOF
