  0
SECTION
  2
HEADER
  9
$ACADVER
  1
AC1009
  9
$INSBASE
 10
0.0
 20
0.0
 30
0.0
  9
$EXTMIN
 10
-5.03
 20
-5.03
 30
-1.03
  9
$EXTMAX
 10
5.03
 20
5
 30
5.03
  0
ENDSEC
  0
SECTION
  2
TABLES
  0
TABLE
  2
LTYPE
 70
     2
  0
LTYPE
  2
CONTINUOUS
 70
    64
  3
________
 72
    65
 73
     0
 40
0.0
  0
LTYPE
  2
DASHED
 70
     0
  3
__ __ __
 72
    65
 73
     2
 40
0.75
 49
0.5
 49
-0.25
  0
LTYPE
  2
DOT
 70
     0
  3
. . . .
 72
    65
 73
     2
 40
0.25
 49
0.0
 49
-0.25
  0
LTYPE
  2
DASHDOT
 70
     0
  3
_ . _ .
 72
    65
 73
     4
 40
1.0
 49
0.5
 49
-0.25
 49
-0.0
 49
-0.25
  0
LTYPE
  2
DASHDOUBLEDOT
 70
     0
  3
__..__..
 72
    65
 73
     6
 40
1.25
 49
0.5
 49
-0.25
 49
-0.0
 49
-0.25
 49
-0.0
 49
-0.25
  0
LTYPE
  2
DASHTRIPLEDOT
 70
     0
  3
__...__...__
 72
    65
 73
     8
 40
1.5
 49
0.5
 49
-0.25
 49
-0.0
 49
-0.25
 49
-0.0
 49
-0.25
 49
-0.0
 49
-0.25
  0
ENDTAB
  0
TABLE
  2
LAYER
 70
    14
  0
LAYER
  2
0
 70
    64
 62
     7
  6
CONTINUOUS
  0
LAYER
  2
CEILING
 70
    64
 62
     7
  6
CONTINUOUS
  0
LAYER
  2
FLOORBLOCK
 70
    64
 62
     7
  6
CONTINUOUS
  0
LAYER
  2
FLOORHATCHING
 70
    64
 62
     7
  6
CONTINUOUS
  0
LAYER
  2
SNAP
 70
    64
 62
     7
  6
CONTINUOUS
  0
LAYER
  2
ATTACHPOINT
 70
    64
 62
     7
  6
CONTINUOUS
  0
LAYER
  2
72_ARTEK_AKFURNITURE_D2_SH_ATT
 70
    64
 62
8
  6
CONTINUOUS
  0
LAYER
  2
72_ARTEK_AKFURNITURE_D2SNAP
 70
    64
 62
1
  6
CONTINUOUS
  0
LAYER
  2
72_ARTEK_AKFURNITURE_D2_SH_FRA
 70
    64
 62
18
  6
CONTINUOUS
  0
LAYER
  2
72_ARTEK_AKFURNITURE_D2_SH_SHE
 70
    64
 62
18
  6
CONTINUOUS
  0
LAYER
  2
72_ARTEK_AKFURNITURE_D2_TB_ATT
 70
    64
 62
8
  6
CONTINUOUS
  0
LAYER
  2
72_ARTEK_AKFURNITURE_D2_TB_TAB
 70
    64
 62
18
  6
CONTINUOUS
  0
LAYER
  2
72_ARTEK_AKFURNITURE_D2_ACC
 70
    64
 62
18
  6
CONTINUOUS
  0
LAYER
  2
72OFGO2D01_GRAFIK
 70
    64
 62
     1
  6
CONTINUOUS
  0
ENDTAB
  0
TABLE
  2
STYLE
 70
     1
  0
STYLE
  2
STANDARD
 70
     0
 40
0.0
 41
1.0
 50
0.0
 71
     0
 42
0.2
  3
txt
  4

  0
ENDTAB
  0
TABLE
  2
APPID
 70
    64
  0
APPID
  2
ACAD
 70
    64
  0
APPID
  2
OFML_10
 70
    64
  0
ENDTAB
  0
ENDSEC
  0
SECTION
  2
BLOCKS
  0
BLOCK
  8
0
  2
OB2D__000000
 70
    64
 10
0.0
 20
0.0
 30
0.0
  3
OB2D__000000
  0
POLYLINE
  8
72_ARTEK_AKFURNITURE_D2_SH_SHE
 66
     1
 70
     0
 10
0.0
 20
0.0
 30
0.0
  0
VERTEX
  8
72_ARTEK_AKFURNITURE_D2_SH_SHE
 10
1
 20
-0.349
 30
0
  0
VERTEX
  8
72_ARTEK_AKFURNITURE_D2_SH_SHE
 10
1
 20
-0.001
 30
0
  0
VERTEX
  8
72_ARTEK_AKFURNITURE_D2_SH_SHE
 10
1
 20
-0.001
 30
0
  0
VERTEX
  8
72_ARTEK_AKFURNITURE_D2_SH_SHE
 10
0.999985
 20
-0.000826352
 30
0
  0
VERTEX
  8
72_ARTEK_AKFURNITURE_D2_SH_SHE
 10
0.99994
 20
-0.00065798
 30
0
  0
VERTEX
  8
72_ARTEK_AKFURNITURE_D2_SH_SHE
 10
0.999866
 20
-0.0005
 30
0
  0
VERTEX
  8
72_ARTEK_AKFURNITURE_D2_SH_SHE
 10
0.999766
 20
-0.000357212
 30
0
  0
VERTEX
  8
72_ARTEK_AKFURNITURE_D2_SH_SHE
 10
0.999643
 20
-0.000233956
 30
0
  0
VERTEX
  8
72_ARTEK_AKFURNITURE_D2_SH_SHE
 10
0.9995
 20
-0.000133975
 30
0
  0
VERTEX
  8
72_ARTEK_AKFURNITURE_D2_SH_SHE
 10
0.999342
 20
-6.03074e-005
 30
0
  0
VERTEX
  8
72_ARTEK_AKFURNITURE_D2_SH_SHE
 10
0.999174
 20
-1.51922e-005
 30
0
  0
VERTEX
  8
72_ARTEK_AKFURNITURE_D2_SH_SHE
 10
0.999
 20
5.75982e-020
 30
0
  0
VERTEX
  8
72_ARTEK_AKFURNITURE_D2_SH_SHE
 10
0.9135
 20
-0
 30
0
  0
VERTEX
  8
72_ARTEK_AKFURNITURE_D2_SH_SHE
 10
0.9135
 20
-0.051
 30
0
  0
VERTEX
  8
72_ARTEK_AKFURNITURE_D2_SH_SHE
 10
0.9135
 20
-0.051
 30
0
  0
VERTEX
  8
72_ARTEK_AKFURNITURE_D2_SH_SHE
 10
0.91347
 20
-0.0513473
 30
0
  0
VERTEX
  8
72_ARTEK_AKFURNITURE_D2_SH_SHE
 10
0.913379
 20
-0.051684
 30
0
  0
VERTEX
  8
72_ARTEK_AKFURNITURE_D2_SH_SHE
 10
0.913232
 20
-0.052
 30
0
  0
VERTEX
  8
72_ARTEK_AKFURNITURE_D2_SH_SHE
 10
0.913032
 20
-0.0522856
 30
0
  0
VERTEX
  8
72_ARTEK_AKFURNITURE_D2_SH_SHE
 10
0.912786
 20
-0.0525321
 30
0
  0
VERTEX
  8
72_ARTEK_AKFURNITURE_D2_SH_SHE
 10
0.9125
 20
-0.0527321
 30
0
  0
VERTEX
  8
72_ARTEK_AKFURNITURE_D2_SH_SHE
 10
0.912184
 20
-0.0528794
 30
0
  0
VERTEX
  8
72_ARTEK_AKFURNITURE_D2_SH_SHE
 10
0.911847
 20
-0.0529696
 30
0
  0
VERTEX
  8
72_ARTEK_AKFURNITURE_D2_SH_SHE
 10
0.9115
 20
-0.053
 30
0
  0
VERTEX
  8
72_ARTEK_AKFURNITURE_D2_SH_SHE
 10
0.8885
 20
-0.053
 30
0
  0
VERTEX
  8
72_ARTEK_AKFURNITURE_D2_SH_SHE
 10
0.8885
 20
-0.053
 30
0
  0
VERTEX
  8
72_ARTEK_AKFURNITURE_D2_SH_SHE
 10
0.888153
 20
-0.0529696
 30
0
  0
VERTEX
  8
72_ARTEK_AKFURNITURE_D2_SH_SHE
 10
0.887816
 20
-0.0528794
 30
0
  0
VERTEX
  8
72_ARTEK_AKFURNITURE_D2_SH_SHE
 10
0.8875
 20
-0.0527321
 30
0
  0
VERTEX
  8
72_ARTEK_AKFURNITURE_D2_SH_SHE
 10
0.887214
 20
-0.0525321
 30
0
  0
VERTEX
  8
72_ARTEK_AKFURNITURE_D2_SH_SHE
 10
0.886968
 20
-0.0522856
 30
0
  0
VERTEX
  8
72_ARTEK_AKFURNITURE_D2_SH_SHE
 10
0.886768
 20
-0.052
 30
0
  0
VERTEX
  8
72_ARTEK_AKFURNITURE_D2_SH_SHE
 10
0.886621
 20
-0.051684
 30
0
  0
VERTEX
  8
72_ARTEK_AKFURNITURE_D2_SH_SHE
 10
0.88653
 20
-0.0513473
 30
0
  0
VERTEX
  8
72_ARTEK_AKFURNITURE_D2_SH_SHE
 10
0.8865
 20
-0.051
 30
0
  0
VERTEX
  8
72_ARTEK_AKFURNITURE_D2_SH_SHE
 10
0.8865
 20
-0
 30
0
  0
VERTEX
  8
72_ARTEK_AKFURNITURE_D2_SH_SHE
 10
0.1135
 20
-0
 30
0
  0
VERTEX
  8
72_ARTEK_AKFURNITURE_D2_SH_SHE
 10
0.1135
 20
-0.051
 30
0
  0
VERTEX
  8
72_ARTEK_AKFURNITURE_D2_SH_SHE
 10
0.1135
 20
-0.051
 30
0
  0
VERTEX
  8
72_ARTEK_AKFURNITURE_D2_SH_SHE
 10
0.11347
 20
-0.0513473
 30
0
  0
VERTEX
  8
72_ARTEK_AKFURNITURE_D2_SH_SHE
 10
0.113379
 20
-0.051684
 30
0
  0
VERTEX
  8
72_ARTEK_AKFURNITURE_D2_SH_SHE
 10
0.113232
 20
-0.052
 30
0
  0
VERTEX
  8
72_ARTEK_AKFURNITURE_D2_SH_SHE
 10
0.113032
 20
-0.0522856
 30
0
  0
VERTEX
  8
72_ARTEK_AKFURNITURE_D2_SH_SHE
 10
0.112786
 20
-0.0525321
 30
0
  0
VERTEX
  8
72_ARTEK_AKFURNITURE_D2_SH_SHE
 10
0.1125
 20
-0.0527321
 30
0
  0
VERTEX
  8
72_ARTEK_AKFURNITURE_D2_SH_SHE
 10
0.112184
 20
-0.0528794
 30
0
  0
VERTEX
  8
72_ARTEK_AKFURNITURE_D2_SH_SHE
 10
0.111847
 20
-0.0529696
 30
0
  0
VERTEX
  8
72_ARTEK_AKFURNITURE_D2_SH_SHE
 10
0.1115
 20
-0.053
 30
0
  0
VERTEX
  8
72_ARTEK_AKFURNITURE_D2_SH_SHE
 10
0.0885
 20
-0.053
 30
0
  0
VERTEX
  8
72_ARTEK_AKFURNITURE_D2_SH_SHE
 10
0.0885
 20
-0.053
 30
0
  0
VERTEX
  8
72_ARTEK_AKFURNITURE_D2_SH_SHE
 10
0.0881527
 20
-0.0529696
 30
0
  0
VERTEX
  8
72_ARTEK_AKFURNITURE_D2_SH_SHE
 10
0.087816
 20
-0.0528794
 30
0
  0
VERTEX
  8
72_ARTEK_AKFURNITURE_D2_SH_SHE
 10
0.0875
 20
-0.0527321
 30
0
  0
VERTEX
  8
72_ARTEK_AKFURNITURE_D2_SH_SHE
 10
0.0872144
 20
-0.0525321
 30
0
  0
VERTEX
  8
72_ARTEK_AKFURNITURE_D2_SH_SHE
 10
0.0869679
 20
-0.0522856
 30
0
  0
VERTEX
  8
72_ARTEK_AKFURNITURE_D2_SH_SHE
 10
0.0867679
 20
-0.052
 30
0
  0
VERTEX
  8
72_ARTEK_AKFURNITURE_D2_SH_SHE
 10
0.0866206
 20
-0.051684
 30
0
  0
VERTEX
  8
72_ARTEK_AKFURNITURE_D2_SH_SHE
 10
0.0865304
 20
-0.0513473
 30
0
  0
VERTEX
  8
72_ARTEK_AKFURNITURE_D2_SH_SHE
 10
0.0865
 20
-0.051
 30
0
  0
VERTEX
  8
72_ARTEK_AKFURNITURE_D2_SH_SHE
 10
0.0865
 20
-0
 30
0
  0
VERTEX
  8
72_ARTEK_AKFURNITURE_D2_SH_SHE
 10
0.001
 20
-0
 30
0
  0
VERTEX
  8
72_ARTEK_AKFURNITURE_D2_SH_SHE
 10
0.001
 20
-0
 30
0
  0
VERTEX
  8
72_ARTEK_AKFURNITURE_D2_SH_SHE
 10
0.00080491
 20
-1.92147e-005
 30
0
  0
VERTEX
  8
72_ARTEK_AKFURNITURE_D2_SH_SHE
 10
0.000617317
 20
-7.61205e-005
 30
0
  0
VERTEX
  8
72_ARTEK_AKFURNITURE_D2_SH_SHE
 10
0.00044443
 20
-0.00016853
 30
0
  0
VERTEX
  8
72_ARTEK_AKFURNITURE_D2_SH_SHE
 10
0.000292893
 20
-0.000292893
 30
0
  0
VERTEX
  8
72_ARTEK_AKFURNITURE_D2_SH_SHE
 10
0.00016853
 20
-0.00044443
 30
0
  0
VERTEX
  8
72_ARTEK_AKFURNITURE_D2_SH_SHE
 10
7.61205e-005
 20
-0.000617317
 30
0
  0
VERTEX
  8
72_ARTEK_AKFURNITURE_D2_SH_SHE
 10
1.92147e-005
 20
-0.00080491
 30
0
  0
VERTEX
  8
72_ARTEK_AKFURNITURE_D2_SH_SHE
 10
1.02067e-019
 20
-0.001
 30
0
  0
VERTEX
  8
72_ARTEK_AKFURNITURE_D2_SH_SHE
 10
0
 20
-0.349
 30
0
  0
VERTEX
  8
72_ARTEK_AKFURNITURE_D2_SH_SHE
 10
0.001
 20
-0.349
 30
0
  0
VERTEX
  8
72_ARTEK_AKFURNITURE_D2_SH_SHE
 10
0.001
 20
-0.35
 30
0
  0
VERTEX
  8
72_ARTEK_AKFURNITURE_D2_SH_SHE
 10
0.999
 20
-0.35
 30
0
  0
VERTEX
  8
72_ARTEK_AKFURNITURE_D2_SH_SHE
 10
0.999
 20
-0.349
 30
0
  0
VERTEX
  8
72_ARTEK_AKFURNITURE_D2_SH_SHE
 10
1
 20
-0.349
 30
0
  0
SEQEND
  0
POLYLINE
  8
72_ARTEK_AKFURNITURE_D2SNAP
 66
     1
 70
     0
 10
0.0
 20
0.0
 30
0.0
  0
VERTEX
  8
72_ARTEK_AKFURNITURE_D2SNAP
 10
0.0125
 20
-0
 30
0
  0
VERTEX
  8
72_ARTEK_AKFURNITURE_D2SNAP
 10
0.0122598
 20
0.00243863
 30
0
  0
VERTEX
  8
72_ARTEK_AKFURNITURE_D2SNAP
 10
0.0115485
 20
0.00478354
 30
0
  0
VERTEX
  8
72_ARTEK_AKFURNITURE_D2SNAP
 10
0.0103934
 20
0.00694463
 30
0
  0
VERTEX
  8
72_ARTEK_AKFURNITURE_D2SNAP
 10
0.00883883
 20
0.00883883
 30
0
  0
VERTEX
  8
72_ARTEK_AKFURNITURE_D2SNAP
 10
0.00694463
 20
0.0103934
 30
0
  0
VERTEX
  8
72_ARTEK_AKFURNITURE_D2SNAP
 10
0.00478354
 20
0.0115485
 30
0
  0
VERTEX
  8
72_ARTEK_AKFURNITURE_D2SNAP
 10
0.00243863
 20
0.0122598
 30
0
  0
VERTEX
  8
72_ARTEK_AKFURNITURE_D2SNAP
 10
1.57667e-018
 20
0.0125
 30
0
  0
VERTEX
  8
72_ARTEK_AKFURNITURE_D2SNAP
 10
-0.00243863
 20
0.0122598
 30
0
  0
VERTEX
  8
72_ARTEK_AKFURNITURE_D2SNAP
 10
-0.00478354
 20
0.0115485
 30
0
  0
VERTEX
  8
72_ARTEK_AKFURNITURE_D2SNAP
 10
-0.00694463
 20
0.0103934
 30
0
  0
VERTEX
  8
72_ARTEK_AKFURNITURE_D2SNAP
 10
-0.00883883
 20
0.00883883
 30
0
  0
VERTEX
  8
72_ARTEK_AKFURNITURE_D2SNAP
 10
-0.0103934
 20
0.00694463
 30
0
  0
VERTEX
  8
72_ARTEK_AKFURNITURE_D2SNAP
 10
-0.0115485
 20
0.00478354
 30
0
  0
VERTEX
  8
72_ARTEK_AKFURNITURE_D2SNAP
 10
-0.0122598
 20
0.00243863
 30
0
  0
VERTEX
  8
72_ARTEK_AKFURNITURE_D2SNAP
 10
-0.0125
 20
3.15316e-018
 30
0
  0
VERTEX
  8
72_ARTEK_AKFURNITURE_D2SNAP
 10
-0.0122598
 20
-0.00243863
 30
0
  0
VERTEX
  8
72_ARTEK_AKFURNITURE_D2SNAP
 10
-0.0115485
 20
-0.00478354
 30
0
  0
VERTEX
  8
72_ARTEK_AKFURNITURE_D2SNAP
 10
-0.0103934
 20
-0.00694463
 30
0
  0
VERTEX
  8
72_ARTEK_AKFURNITURE_D2SNAP
 10
-0.00883883
 20
-0.00883883
 30
0
  0
VERTEX
  8
72_ARTEK_AKFURNITURE_D2SNAP
 10
-0.00694463
 20
-0.0103934
 30
0
  0
VERTEX
  8
72_ARTEK_AKFURNITURE_D2SNAP
 10
-0.00478354
 20
-0.0115485
 30
0
  0
VERTEX
  8
72_ARTEK_AKFURNITURE_D2SNAP
 10
-0.00243863
 20
-0.0122598
 30
0
  0
VERTEX
  8
72_ARTEK_AKFURNITURE_D2SNAP
 10
-4.73102e-018
 20
-0.0125
 30
0
  0
VERTEX
  8
72_ARTEK_AKFURNITURE_D2SNAP
 10
0.00243863
 20
-0.0122598
 30
0
  0
VERTEX
  8
72_ARTEK_AKFURNITURE_D2SNAP
 10
0.00478354
 20
-0.0115485
 30
0
  0
VERTEX
  8
72_ARTEK_AKFURNITURE_D2SNAP
 10
0.00694463
 20
-0.0103934
 30
0
  0
VERTEX
  8
72_ARTEK_AKFURNITURE_D2SNAP
 10
0.00883883
 20
-0.00883883
 30
0
  0
VERTEX
  8
72_ARTEK_AKFURNITURE_D2SNAP
 10
0.0103934
 20
-0.00694463
 30
0
  0
VERTEX
  8
72_ARTEK_AKFURNITURE_D2SNAP
 10
0.0115485
 20
-0.00478354
 30
0
  0
VERTEX
  8
72_ARTEK_AKFURNITURE_D2SNAP
 10
0.0122598
 20
-0.00243863
 30
0
  0
VERTEX
  8
72_ARTEK_AKFURNITURE_D2SNAP
 10
0.0125
 20
-0
 30
0
  0
SEQEND
  0
POLYLINE
  8
72_ARTEK_AKFURNITURE_D2SNAP
 66
     1
 70
     0
 10
0.0
 20
0.0
 30
0.0
  0
VERTEX
  8
72_ARTEK_AKFURNITURE_D2SNAP
 10
-0.0176777
 20
-0.0176777
 30
0
  0
VERTEX
  8
72_ARTEK_AKFURNITURE_D2SNAP
 10
0.0176777
 20
0.0176777
 30
0
  0
SEQEND
  0
POLYLINE
  8
72_ARTEK_AKFURNITURE_D2SNAP
 66
     1
 70
     0
 10
0.0
 20
0.0
 30
0.0
  0
VERTEX
  8
72_ARTEK_AKFURNITURE_D2SNAP
 10
-0.0176777
 20
0.0176777
 30
0
  0
VERTEX
  8
72_ARTEK_AKFURNITURE_D2SNAP
 10
0.0176777
 20
-0.0176777
 30
0
  0
SEQEND
  0
POLYLINE
  8
72_ARTEK_AKFURNITURE_D2_SH_ATT
 66
     1
 70
     0
 10
0.0
 20
0.0
 30
0.0
  0
VERTEX
  8
72_ARTEK_AKFURNITURE_D2_SH_ATT
 10
0.8885
 20
-0.053
 30
0
  0
VERTEX
  8
72_ARTEK_AKFURNITURE_D2_SH_ATT
 10
0.888153
 20
-0.0529696
 30
0
  0
VERTEX
  8
72_ARTEK_AKFURNITURE_D2_SH_ATT
 10
0.887816
 20
-0.0528794
 30
0
  0
VERTEX
  8
72_ARTEK_AKFURNITURE_D2_SH_ATT
 10
0.8875
 20
-0.0527321
 30
0
  0
VERTEX
  8
72_ARTEK_AKFURNITURE_D2_SH_ATT
 10
0.8875
 20
-0.3055
 30
0
  0
VERTEX
  8
72_ARTEK_AKFURNITURE_D2_SH_ATT
 10
0.888
 20
-0.306
 30
0
  0
VERTEX
  8
72_ARTEK_AKFURNITURE_D2_SH_ATT
 10
0.912
 20
-0.306
 30
0
  0
VERTEX
  8
72_ARTEK_AKFURNITURE_D2_SH_ATT
 10
0.9125
 20
-0.3055
 30
0
  0
VERTEX
  8
72_ARTEK_AKFURNITURE_D2_SH_ATT
 10
0.9125
 20
-0.0527321
 30
0
  0
VERTEX
  8
72_ARTEK_AKFURNITURE_D2_SH_ATT
 10
0.9125
 20
-0.0527321
 30
0
  0
VERTEX
  8
72_ARTEK_AKFURNITURE_D2_SH_ATT
 10
0.912184
 20
-0.0528794
 30
0
  0
VERTEX
  8
72_ARTEK_AKFURNITURE_D2_SH_ATT
 10
0.911847
 20
-0.0529696
 30
0
  0
VERTEX
  8
72_ARTEK_AKFURNITURE_D2_SH_ATT
 10
0.9115
 20
-0.053
 30
0
  0
VERTEX
  8
72_ARTEK_AKFURNITURE_D2_SH_ATT
 10
0.8885
 20
-0.053
 30
0
  0
SEQEND
  0
POLYLINE
  8
72_ARTEK_AKFURNITURE_D2_SH_ATT
 66
     1
 70
     0
 10
0.0
 20
0.0
 30
0.0
  0
VERTEX
  8
72_ARTEK_AKFURNITURE_D2_SH_ATT
 10
0.0885
 20
-0.053
 30
0
  0
VERTEX
  8
72_ARTEK_AKFURNITURE_D2_SH_ATT
 10
0.0881527
 20
-0.0529696
 30
0
  0
VERTEX
  8
72_ARTEK_AKFURNITURE_D2_SH_ATT
 10
0.087816
 20
-0.0528794
 30
0
  0
VERTEX
  8
72_ARTEK_AKFURNITURE_D2_SH_ATT
 10
0.0875
 20
-0.0527321
 30
0
  0
VERTEX
  8
72_ARTEK_AKFURNITURE_D2_SH_ATT
 10
0.0875
 20
-0.3055
 30
0
  0
VERTEX
  8
72_ARTEK_AKFURNITURE_D2_SH_ATT
 10
0.088
 20
-0.306
 30
0
  0
VERTEX
  8
72_ARTEK_AKFURNITURE_D2_SH_ATT
 10
0.112
 20
-0.306
 30
0
  0
VERTEX
  8
72_ARTEK_AKFURNITURE_D2_SH_ATT
 10
0.1125
 20
-0.3055
 30
0
  0
VERTEX
  8
72_ARTEK_AKFURNITURE_D2_SH_ATT
 10
0.1125
 20
-0.0527321
 30
0
  0
VERTEX
  8
72_ARTEK_AKFURNITURE_D2_SH_ATT
 10
0.1125
 20
-0.0527321
 30
0
  0
VERTEX
  8
72_ARTEK_AKFURNITURE_D2_SH_ATT
 10
0.112184
 20
-0.0528794
 30
0
  0
VERTEX
  8
72_ARTEK_AKFURNITURE_D2_SH_ATT
 10
0.111847
 20
-0.0529696
 30
0
  0
VERTEX
  8
72_ARTEK_AKFURNITURE_D2_SH_ATT
 10
0.1115
 20
-0.053
 30
0
  0
VERTEX
  8
72_ARTEK_AKFURNITURE_D2_SH_ATT
 10
0.0885
 20
-0.053
 30
0
  0
SEQEND
  0
POLYLINE
  8
72_ARTEK_AKFURNITURE_D2SNAP
 66
     1
 70
     0
 10
0.0
 20
0.0
 30
0.0
  0
VERTEX
  8
72_ARTEK_AKFURNITURE_D2SNAP
 10
0.0125
 20
-0
 30
0
  0
VERTEX
  8
72_ARTEK_AKFURNITURE_D2SNAP
 10
0.0122598
 20
0.00243863
 30
0
  0
VERTEX
  8
72_ARTEK_AKFURNITURE_D2SNAP
 10
0.0115485
 20
0.00478354
 30
0
  0
VERTEX
  8
72_ARTEK_AKFURNITURE_D2SNAP
 10
0.0103934
 20
0.00694463
 30
0
  0
VERTEX
  8
72_ARTEK_AKFURNITURE_D2SNAP
 10
0.00883883
 20
0.00883883
 30
0
  0
VERTEX
  8
72_ARTEK_AKFURNITURE_D2SNAP
 10
0.00694463
 20
0.0103934
 30
0
  0
VERTEX
  8
72_ARTEK_AKFURNITURE_D2SNAP
 10
0.00478354
 20
0.0115485
 30
0
  0
VERTEX
  8
72_ARTEK_AKFURNITURE_D2SNAP
 10
0.00243863
 20
0.0122598
 30
0
  0
VERTEX
  8
72_ARTEK_AKFURNITURE_D2SNAP
 10
1.57667e-018
 20
0.0125
 30
0
  0
VERTEX
  8
72_ARTEK_AKFURNITURE_D2SNAP
 10
-0.00243863
 20
0.0122598
 30
0
  0
VERTEX
  8
72_ARTEK_AKFURNITURE_D2SNAP
 10
-0.00478354
 20
0.0115485
 30
0
  0
VERTEX
  8
72_ARTEK_AKFURNITURE_D2SNAP
 10
-0.00694463
 20
0.0103934
 30
0
  0
VERTEX
  8
72_ARTEK_AKFURNITURE_D2SNAP
 10
-0.00883883
 20
0.00883883
 30
0
  0
VERTEX
  8
72_ARTEK_AKFURNITURE_D2SNAP
 10
-0.0103934
 20
0.00694463
 30
0
  0
VERTEX
  8
72_ARTEK_AKFURNITURE_D2SNAP
 10
-0.0115485
 20
0.00478354
 30
0
  0
VERTEX
  8
72_ARTEK_AKFURNITURE_D2SNAP
 10
-0.0122598
 20
0.00243863
 30
0
  0
VERTEX
  8
72_ARTEK_AKFURNITURE_D2SNAP
 10
-0.0125
 20
3.15316e-018
 30
0
  0
VERTEX
  8
72_ARTEK_AKFURNITURE_D2SNAP
 10
-0.0122598
 20
-0.00243863
 30
0
  0
VERTEX
  8
72_ARTEK_AKFURNITURE_D2SNAP
 10
-0.0115485
 20
-0.00478354
 30
0
  0
VERTEX
  8
72_ARTEK_AKFURNITURE_D2SNAP
 10
-0.0103934
 20
-0.00694463
 30
0
  0
VERTEX
  8
72_ARTEK_AKFURNITURE_D2SNAP
 10
-0.00883883
 20
-0.00883883
 30
0
  0
VERTEX
  8
72_ARTEK_AKFURNITURE_D2SNAP
 10
-0.00694463
 20
-0.0103934
 30
0
  0
VERTEX
  8
72_ARTEK_AKFURNITURE_D2SNAP
 10
-0.00478354
 20
-0.0115485
 30
0
  0
VERTEX
  8
72_ARTEK_AKFURNITURE_D2SNAP
 10
-0.00243863
 20
-0.0122598
 30
0
  0
VERTEX
  8
72_ARTEK_AKFURNITURE_D2SNAP
 10
-4.73102e-018
 20
-0.0125
 30
0
  0
VERTEX
  8
72_ARTEK_AKFURNITURE_D2SNAP
 10
0.00243863
 20
-0.0122598
 30
0
  0
VERTEX
  8
72_ARTEK_AKFURNITURE_D2SNAP
 10
0.00478354
 20
-0.0115485
 30
0
  0
VERTEX
  8
72_ARTEK_AKFURNITURE_D2SNAP
 10
0.00694463
 20
-0.0103934
 30
0
  0
VERTEX
  8
72_ARTEK_AKFURNITURE_D2SNAP
 10
0.00883883
 20
-0.00883883
 30
0
  0
VERTEX
  8
72_ARTEK_AKFURNITURE_D2SNAP
 10
0.0103934
 20
-0.00694463
 30
0
  0
VERTEX
  8
72_ARTEK_AKFURNITURE_D2SNAP
 10
0.0115485
 20
-0.00478354
 30
0
  0
VERTEX
  8
72_ARTEK_AKFURNITURE_D2SNAP
 10
0.0122598
 20
-0.00243863
 30
0
  0
VERTEX
  8
72_ARTEK_AKFURNITURE_D2SNAP
 10
0.0125
 20
-0
 30
0
  0
SEQEND
  0
POLYLINE
  8
72_ARTEK_AKFURNITURE_D2SNAP
 66
     1
 70
     0
 10
0.0
 20
0.0
 30
0.0
  0
VERTEX
  8
72_ARTEK_AKFURNITURE_D2SNAP
 10
-0.0176777
 20
-0.0176777
 30
0
  0
VERTEX
  8
72_ARTEK_AKFURNITURE_D2SNAP
 10
0.0176777
 20
0.0176777
 30
0
  0
SEQEND
  0
POLYLINE
  8
72_ARTEK_AKFURNITURE_D2SNAP
 66
     1
 70
     0
 10
0.0
 20
0.0
 30
0.0
  0
VERTEX
  8
72_ARTEK_AKFURNITURE_D2SNAP
 10
-0.0176777
 20
0.0176777
 30
0
  0
VERTEX
  8
72_ARTEK_AKFURNITURE_D2SNAP
 10
0.0176777
 20
-0.0176777
 30
0
  0
SEQEND
  0
POLYLINE
  8
72_ARTEK_AKFURNITURE_D2_SH_FRA
 66
     1
 70
     0
 10
0.0
 20
0.0
 30
0.0
  0
VERTEX
  8
72_ARTEK_AKFURNITURE_D2_SH_FRA
 10
0.912
 20
-0.049
 30
0
  0
VERTEX
  8
72_ARTEK_AKFURNITURE_D2_SH_FRA
 10
0.912
 20
-0.001
 30
0
  0
VERTEX
  8
72_ARTEK_AKFURNITURE_D2_SH_FRA
 10
0.912
 20
-0.001
 30
0
  0
VERTEX
  8
72_ARTEK_AKFURNITURE_D2_SH_FRA
 10
0.911981
 20
-0.00080491
 30
0
  0
VERTEX
  8
72_ARTEK_AKFURNITURE_D2_SH_FRA
 10
0.911924
 20
-0.000617317
 30
0
  0
VERTEX
  8
72_ARTEK_AKFURNITURE_D2_SH_FRA
 10
0.911831
 20
-0.00044443
 30
0
  0
VERTEX
  8
72_ARTEK_AKFURNITURE_D2_SH_FRA
 10
0.911707
 20
-0.000292893
 30
0
  0
VERTEX
  8
72_ARTEK_AKFURNITURE_D2_SH_FRA
 10
0.911556
 20
-0.00016853
 30
0
  0
VERTEX
  8
72_ARTEK_AKFURNITURE_D2_SH_FRA
 10
0.911383
 20
-7.61205e-005
 30
0
  0
VERTEX
  8
72_ARTEK_AKFURNITURE_D2_SH_FRA
 10
0.911195
 20
-1.92147e-005
 30
0
  0
VERTEX
  8
72_ARTEK_AKFURNITURE_D2_SH_FRA
 10
0.911
 20
-3.99376e-019
 30
0
  0
VERTEX
  8
72_ARTEK_AKFURNITURE_D2_SH_FRA
 10
0.889
 20
-0
 30
0
  0
VERTEX
  8
72_ARTEK_AKFURNITURE_D2_SH_FRA
 10
0.889
 20
-0
 30
0
  0
VERTEX
  8
72_ARTEK_AKFURNITURE_D2_SH_FRA
 10
0.888805
 20
-1.92147e-005
 30
0
  0
VERTEX
  8
72_ARTEK_AKFURNITURE_D2_SH_FRA
 10
0.888617
 20
-7.61205e-005
 30
0
  0
VERTEX
  8
72_ARTEK_AKFURNITURE_D2_SH_FRA
 10
0.888444
 20
-0.00016853
 30
0
  0
VERTEX
  8
72_ARTEK_AKFURNITURE_D2_SH_FRA
 10
0.888293
 20
-0.000292893
 30
0
  0
VERTEX
  8
72_ARTEK_AKFURNITURE_D2_SH_FRA
 10
0.888169
 20
-0.00044443
 30
0
  0
VERTEX
  8
72_ARTEK_AKFURNITURE_D2_SH_FRA
 10
0.888076
 20
-0.000617317
 30
0
  0
VERTEX
  8
72_ARTEK_AKFURNITURE_D2_SH_FRA
 10
0.888019
 20
-0.00080491
 30
0
  0
VERTEX
  8
72_ARTEK_AKFURNITURE_D2_SH_FRA
 10
0.888
 20
-0.001
 30
0
  0
VERTEX
  8
72_ARTEK_AKFURNITURE_D2_SH_FRA
 10
0.888
 20
-0.049
 30
0
  0
VERTEX
  8
72_ARTEK_AKFURNITURE_D2_SH_FRA
 10
0.888
 20
-0.049
 30
0
  0
VERTEX
  8
72_ARTEK_AKFURNITURE_D2_SH_FRA
 10
0.888019
 20
-0.0491951
 30
0
  0
VERTEX
  8
72_ARTEK_AKFURNITURE_D2_SH_FRA
 10
0.888076
 20
-0.0493827
 30
0
  0
VERTEX
  8
72_ARTEK_AKFURNITURE_D2_SH_FRA
 10
0.888169
 20
-0.0495556
 30
0
  0
VERTEX
  8
72_ARTEK_AKFURNITURE_D2_SH_FRA
 10
0.888293
 20
-0.0497071
 30
0
  0
VERTEX
  8
72_ARTEK_AKFURNITURE_D2_SH_FRA
 10
0.888444
 20
-0.0498315
 30
0
  0
VERTEX
  8
72_ARTEK_AKFURNITURE_D2_SH_FRA
 10
0.888617
 20
-0.0499239
 30
0
  0
VERTEX
  8
72_ARTEK_AKFURNITURE_D2_SH_FRA
 10
0.888805
 20
-0.0499808
 30
0
  0
VERTEX
  8
72_ARTEK_AKFURNITURE_D2_SH_FRA
 10
0.889
 20
-0.05
 30
0
  0
VERTEX
  8
72_ARTEK_AKFURNITURE_D2_SH_FRA
 10
0.911
 20
-0.05
 30
0
  0
VERTEX
  8
72_ARTEK_AKFURNITURE_D2_SH_FRA
 10
0.911
 20
-0.05
 30
0
  0
VERTEX
  8
72_ARTEK_AKFURNITURE_D2_SH_FRA
 10
0.911195
 20
-0.0499808
 30
0
  0
VERTEX
  8
72_ARTEK_AKFURNITURE_D2_SH_FRA
 10
0.911383
 20
-0.0499239
 30
0
  0
VERTEX
  8
72_ARTEK_AKFURNITURE_D2_SH_FRA
 10
0.911556
 20
-0.0498315
 30
0
  0
VERTEX
  8
72_ARTEK_AKFURNITURE_D2_SH_FRA
 10
0.911707
 20
-0.0497071
 30
0
  0
VERTEX
  8
72_ARTEK_AKFURNITURE_D2_SH_FRA
 10
0.911831
 20
-0.0495556
 30
0
  0
VERTEX
  8
72_ARTEK_AKFURNITURE_D2_SH_FRA
 10
0.911924
 20
-0.0493827
 30
0
  0
VERTEX
  8
72_ARTEK_AKFURNITURE_D2_SH_FRA
 10
0.911981
 20
-0.0491951
 30
0
  0
VERTEX
  8
72_ARTEK_AKFURNITURE_D2_SH_FRA
 10
0.912
 20
-0.049
 30
0
  0
SEQEND
  0
POLYLINE
  8
72_ARTEK_AKFURNITURE_D2_SH_FRA
 66
     1
 70
     0
 10
0.0
 20
0.0
 30
0.0
  0
VERTEX
  8
72_ARTEK_AKFURNITURE_D2_SH_FRA
 10
0.088
 20
-0.001
 30
0
  0
VERTEX
  8
72_ARTEK_AKFURNITURE_D2_SH_FRA
 10
0.088
 20
-0.049
 30
0
  0
VERTEX
  8
72_ARTEK_AKFURNITURE_D2_SH_FRA
 10
0.088
 20
-0.049
 30
0
  0
VERTEX
  8
72_ARTEK_AKFURNITURE_D2_SH_FRA
 10
0.0880192
 20
-0.0491951
 30
0
  0
VERTEX
  8
72_ARTEK_AKFURNITURE_D2_SH_FRA
 10
0.0880761
 20
-0.0493827
 30
0
  0
VERTEX
  8
72_ARTEK_AKFURNITURE_D2_SH_FRA
 10
0.0881685
 20
-0.0495556
 30
0
  0
VERTEX
  8
72_ARTEK_AKFURNITURE_D2_SH_FRA
 10
0.0882929
 20
-0.0497071
 30
0
  0
VERTEX
  8
72_ARTEK_AKFURNITURE_D2_SH_FRA
 10
0.0884444
 20
-0.0498315
 30
0
  0
VERTEX
  8
72_ARTEK_AKFURNITURE_D2_SH_FRA
 10
0.0886173
 20
-0.0499239
 30
0
  0
VERTEX
  8
72_ARTEK_AKFURNITURE_D2_SH_FRA
 10
0.0888049
 20
-0.0499808
 30
0
  0
VERTEX
  8
72_ARTEK_AKFURNITURE_D2_SH_FRA
 10
0.089
 20
-0.05
 30
0
  0
VERTEX
  8
72_ARTEK_AKFURNITURE_D2_SH_FRA
 10
0.111
 20
-0.05
 30
0
  0
VERTEX
  8
72_ARTEK_AKFURNITURE_D2_SH_FRA
 10
0.111
 20
-0.05
 30
0
  0
VERTEX
  8
72_ARTEK_AKFURNITURE_D2_SH_FRA
 10
0.111195
 20
-0.0499808
 30
0
  0
VERTEX
  8
72_ARTEK_AKFURNITURE_D2_SH_FRA
 10
0.111383
 20
-0.0499239
 30
0
  0
VERTEX
  8
72_ARTEK_AKFURNITURE_D2_SH_FRA
 10
0.111556
 20
-0.0498315
 30
0
  0
VERTEX
  8
72_ARTEK_AKFURNITURE_D2_SH_FRA
 10
0.111707
 20
-0.0497071
 30
0
  0
VERTEX
  8
72_ARTEK_AKFURNITURE_D2_SH_FRA
 10
0.111831
 20
-0.0495556
 30
0
  0
VERTEX
  8
72_ARTEK_AKFURNITURE_D2_SH_FRA
 10
0.111924
 20
-0.0493827
 30
0
  0
VERTEX
  8
72_ARTEK_AKFURNITURE_D2_SH_FRA
 10
0.111981
 20
-0.0491951
 30
0
  0
VERTEX
  8
72_ARTEK_AKFURNITURE_D2_SH_FRA
 10
0.112
 20
-0.049
 30
0
  0
VERTEX
  8
72_ARTEK_AKFURNITURE_D2_SH_FRA
 10
0.112
 20
-0.001
 30
0
  0
VERTEX
  8
72_ARTEK_AKFURNITURE_D2_SH_FRA
 10
0.112
 20
-0.001
 30
0
  0
VERTEX
  8
72_ARTEK_AKFURNITURE_D2_SH_FRA
 10
0.111981
 20
-0.00080491
 30
0
  0
VERTEX
  8
72_ARTEK_AKFURNITURE_D2_SH_FRA
 10
0.111924
 20
-0.000617317
 30
0
  0
VERTEX
  8
72_ARTEK_AKFURNITURE_D2_SH_FRA
 10
0.111831
 20
-0.00044443
 30
0
  0
VERTEX
  8
72_ARTEK_AKFURNITURE_D2_SH_FRA
 10
0.111707
 20
-0.000292893
 30
0
  0
VERTEX
  8
72_ARTEK_AKFURNITURE_D2_SH_FRA
 10
0.111556
 20
-0.00016853
 30
0
  0
VERTEX
  8
72_ARTEK_AKFURNITURE_D2_SH_FRA
 10
0.111383
 20
-7.61205e-005
 30
0
  0
VERTEX
  8
72_ARTEK_AKFURNITURE_D2_SH_FRA
 10
0.111195
 20
-1.92147e-005
 30
0
  0
VERTEX
  8
72_ARTEK_AKFURNITURE_D2_SH_FRA
 10
0.111
 20
-2.75286e-019
 30
0
  0
VERTEX
  8
72_ARTEK_AKFURNITURE_D2_SH_FRA
 10
0.089
 20
-0
 30
0
  0
VERTEX
  8
72_ARTEK_AKFURNITURE_D2_SH_FRA
 10
0.089
 20
-0
 30
0
  0
VERTEX
  8
72_ARTEK_AKFURNITURE_D2_SH_FRA
 10
0.0888049
 20
-1.92147e-005
 30
0
  0
VERTEX
  8
72_ARTEK_AKFURNITURE_D2_SH_FRA
 10
0.0886173
 20
-7.61205e-005
 30
0
  0
VERTEX
  8
72_ARTEK_AKFURNITURE_D2_SH_FRA
 10
0.0884444
 20
-0.00016853
 30
0
  0
VERTEX
  8
72_ARTEK_AKFURNITURE_D2_SH_FRA
 10
0.0882929
 20
-0.000292893
 30
0
  0
VERTEX
  8
72_ARTEK_AKFURNITURE_D2_SH_FRA
 10
0.0881685
 20
-0.00044443
 30
0
  0
VERTEX
  8
72_ARTEK_AKFURNITURE_D2_SH_FRA
 10
0.0880761
 20
-0.000617317
 30
0
  0
VERTEX
  8
72_ARTEK_AKFURNITURE_D2_SH_FRA
 10
0.0880192
 20
-0.00080491
 30
0
  0
VERTEX
  8
72_ARTEK_AKFURNITURE_D2_SH_FRA
 10
0.088
 20
-0.001
 30
0
  0
SEQEND
  0
POLYLINE
  8
72_ARTEK_AKFURNITURE_D2SNAP
 66
     1
 70
     0
 10
0.0
 20
0.0
 30
0.0
  0
VERTEX
  8
72_ARTEK_AKFURNITURE_D2SNAP
 10
0.0125
 20
-0
 30
0
  0
VERTEX
  8
72_ARTEK_AKFURNITURE_D2SNAP
 10
0.0122598
 20
0.00243863
 30
0
  0
VERTEX
  8
72_ARTEK_AKFURNITURE_D2SNAP
 10
0.0115485
 20
0.00478354
 30
0
  0
VERTEX
  8
72_ARTEK_AKFURNITURE_D2SNAP
 10
0.0103934
 20
0.00694463
 30
0
  0
VERTEX
  8
72_ARTEK_AKFURNITURE_D2SNAP
 10
0.00883883
 20
0.00883883
 30
0
  0
VERTEX
  8
72_ARTEK_AKFURNITURE_D2SNAP
 10
0.00694463
 20
0.0103934
 30
0
  0
VERTEX
  8
72_ARTEK_AKFURNITURE_D2SNAP
 10
0.00478354
 20
0.0115485
 30
0
  0
VERTEX
  8
72_ARTEK_AKFURNITURE_D2SNAP
 10
0.00243863
 20
0.0122598
 30
0
  0
VERTEX
  8
72_ARTEK_AKFURNITURE_D2SNAP
 10
1.57667e-018
 20
0.0125
 30
0
  0
VERTEX
  8
72_ARTEK_AKFURNITURE_D2SNAP
 10
-0.00243863
 20
0.0122598
 30
0
  0
VERTEX
  8
72_ARTEK_AKFURNITURE_D2SNAP
 10
-0.00478354
 20
0.0115485
 30
0
  0
VERTEX
  8
72_ARTEK_AKFURNITURE_D2SNAP
 10
-0.00694463
 20
0.0103934
 30
0
  0
VERTEX
  8
72_ARTEK_AKFURNITURE_D2SNAP
 10
-0.00883883
 20
0.00883883
 30
0
  0
VERTEX
  8
72_ARTEK_AKFURNITURE_D2SNAP
 10
-0.0103934
 20
0.00694463
 30
0
  0
VERTEX
  8
72_ARTEK_AKFURNITURE_D2SNAP
 10
-0.0115485
 20
0.00478354
 30
0
  0
VERTEX
  8
72_ARTEK_AKFURNITURE_D2SNAP
 10
-0.0122598
 20
0.00243863
 30
0
  0
VERTEX
  8
72_ARTEK_AKFURNITURE_D2SNAP
 10
-0.0125
 20
3.15316e-018
 30
0
  0
VERTEX
  8
72_ARTEK_AKFURNITURE_D2SNAP
 10
-0.0122598
 20
-0.00243863
 30
0
  0
VERTEX
  8
72_ARTEK_AKFURNITURE_D2SNAP
 10
-0.0115485
 20
-0.00478354
 30
0
  0
VERTEX
  8
72_ARTEK_AKFURNITURE_D2SNAP
 10
-0.0103934
 20
-0.00694463
 30
0
  0
VERTEX
  8
72_ARTEK_AKFURNITURE_D2SNAP
 10
-0.00883883
 20
-0.00883883
 30
0
  0
VERTEX
  8
72_ARTEK_AKFURNITURE_D2SNAP
 10
-0.00694463
 20
-0.0103934
 30
0
  0
VERTEX
  8
72_ARTEK_AKFURNITURE_D2SNAP
 10
-0.00478354
 20
-0.0115485
 30
0
  0
VERTEX
  8
72_ARTEK_AKFURNITURE_D2SNAP
 10
-0.00243863
 20
-0.0122598
 30
0
  0
VERTEX
  8
72_ARTEK_AKFURNITURE_D2SNAP
 10
-4.73102e-018
 20
-0.0125
 30
0
  0
VERTEX
  8
72_ARTEK_AKFURNITURE_D2SNAP
 10
0.00243863
 20
-0.0122598
 30
0
  0
VERTEX
  8
72_ARTEK_AKFURNITURE_D2SNAP
 10
0.00478354
 20
-0.0115485
 30
0
  0
VERTEX
  8
72_ARTEK_AKFURNITURE_D2SNAP
 10
0.00694463
 20
-0.0103934
 30
0
  0
VERTEX
  8
72_ARTEK_AKFURNITURE_D2SNAP
 10
0.00883883
 20
-0.00883883
 30
0
  0
VERTEX
  8
72_ARTEK_AKFURNITURE_D2SNAP
 10
0.0103934
 20
-0.00694463
 30
0
  0
VERTEX
  8
72_ARTEK_AKFURNITURE_D2SNAP
 10
0.0115485
 20
-0.00478354
 30
0
  0
VERTEX
  8
72_ARTEK_AKFURNITURE_D2SNAP
 10
0.0122598
 20
-0.00243863
 30
0
  0
VERTEX
  8
72_ARTEK_AKFURNITURE_D2SNAP
 10
0.0125
 20
-0
 30
0
  0
SEQEND
  0
POLYLINE
  8
72_ARTEK_AKFURNITURE_D2SNAP
 66
     1
 70
     0
 10
0.0
 20
0.0
 30
0.0
  0
VERTEX
  8
72_ARTEK_AKFURNITURE_D2SNAP
 10
-0.0176777
 20
-0.0176777
 30
0
  0
VERTEX
  8
72_ARTEK_AKFURNITURE_D2SNAP
 10
0.0176777
 20
0.0176777
 30
0
  0
SEQEND
  0
POLYLINE
  8
72_ARTEK_AKFURNITURE_D2SNAP
 66
     1
 70
     0
 10
0.0
 20
0.0
 30
0.0
  0
VERTEX
  8
72_ARTEK_AKFURNITURE_D2SNAP
 10
-0.0176777
 20
0.0176777
 30
0
  0
VERTEX
  8
72_ARTEK_AKFURNITURE_D2SNAP
 10
0.0176777
 20
-0.0176777
 30
0
  0
SEQEND
  0
ENDBLK
  8
0
  0
BLOCK
  8
0
  2
OB2D__000001
 70
    64
 10
0.0
 20
0.0
 30
0.0
  3
OB2D__000001
  0
ENDBLK
  8
0
  0
ENDSEC
  0
SECTION
  2
ENTITIES
  0
INSERT
  8
72OFGO2D01_GRAFIK
  2
OB2D__000000
 10
0.0
 20
0.0
 30
0.0
  0
INSERT
  8
72OFGO2D01_GRAFIK
  2
OB2D__000001
 10
0.0
 20
0.0
 30
0.0
  0
ENDSEC
  0
EOF
