  0
SECTION
  2
HEADER
  9
$ACADVER
  1
AC1009
  9
$INSBASE
 10
0.0
 20
0.0
 30
0.0
  9
$EXTMIN
 10
0
 20
-0.35
 30
0
  9
$EXTMAX
 10
2
 20
-0
 30
1.128
  0
ENDSEC
  0
SECTION
  2
TABLES
  0
TABLE
  2
LTYPE
 70
     2
  0
LTYPE
  2
CONTINUOUS
 70
    64
  3
________
 72
    65
 73
     0
 40
0.0
  0
LTYPE
  2
DASHED
 70
     0
  3
__ __ __
 72
    65
 73
     2
 40
0.75
 49
0.5
 49
-0.25
  0
LTYPE
  2
DOT
 70
     0
  3
. . . .
 72
    65
 73
     2
 40
0.25
 49
0.0
 49
-0.25
  0
LTYPE
  2
DASHDOT
 70
     0
  3
_ . _ .
 72
    65
 73
     4
 40
1.0
 49
0.5
 49
-0.25
 49
-0.0
 49
-0.25
  0
LTYPE
  2
DASHDOUBLEDOT
 70
     0
  3
__..__..
 72
    65
 73
     6
 40
1.25
 49
0.5
 49
-0.25
 49
-0.0
 49
-0.25
 49
-0.0
 49
-0.25
  0
LTYPE
  2
DASHTRIPLEDOT
 70
     0
  3
__...__...__
 72
    65
 73
     8
 40
1.5
 49
0.5
 49
-0.25
 49
-0.0
 49
-0.25
 49
-0.0
 49
-0.25
 49
-0.0
 49
-0.25
  0
ENDTAB
  0
TABLE
  2
LAYER
 70
    14
  0
LAYER
  2
0
 70
    64
 62
     7
  6
CONTINUOUS
  0
LAYER
  2
CEILING
 70
    64
 62
     7
  6
CONTINUOUS
  0
LAYER
  2
FLOORBLOCK
 70
    64
 62
     7
  6
CONTINUOUS
  0
LAYER
  2
FLOORHATCHING
 70
    64
 62
     7
  6
CONTINUOUS
  0
LAYER
  2
SNAP
 70
    64
 62
     7
  6
CONTINUOUS
  0
LAYER
  2
ATTACHPOINT
 70
    64
 62
     7
  6
CONTINUOUS
  0
LAYER
  2
72_ARTEK_AKFURNITURE_D2_SH_ATT
 70
    64
 62
8
  6
CONTINUOUS
  0
LAYER
  2
72_ARTEK_AKFURNITURE_D2SNAP
 70
    64
 62
1
  6
CONTINUOUS
  0
LAYER
  2
72_ARTEK_AKFURNITURE_D2_SH_FRA
 70
    64
 62
18
  6
CONTINUOUS
  0
LAYER
  2
72_ARTEK_AKFURNITURE_D2_SH_SHE
 70
    64
 62
18
  6
CONTINUOUS
  0
LAYER
  2
72_ARTEK_AKFURNITURE_D2_TB_ATT
 70
    64
 62
8
  6
CONTINUOUS
  0
LAYER
  2
72_ARTEK_AKFURNITURE_D2_TB_TAB
 70
    64
 62
18
  6
CONTINUOUS
  0
LAYER
  2
72_ARTEK_AKFURNITURE_D2_ACC
 70
    64
 62
18
  6
CONTINUOUS
  0
LAYER
  2
72OFGO2D01_GRAFIK
 70
    64
 62
     1
  6
CONTINUOUS
  0
ENDTAB
  0
TABLE
  2
STYLE
 70
     1
  0
STYLE
  2
STANDARD
 70
     0
 40
0.0
 41
1.0
 50
0.0
 71
     0
 42
0.2
  3
txt
  4

  0
ENDTAB
  0
TABLE
  2
APPID
 70
    64
  0
APPID
  2
ACAD
 70
    64
  0
APPID
  2
OFML_10
 70
    64
  0
ENDTAB
  0
ENDSEC
  0
SECTION
  2
BLOCKS
  0
BLOCK
  8
0
  2
OB2D_28503301_000000
 70
    64
 10
0.0
 20
0.0
 30
0.0
  3
OB2D_28503301_000000
  0
POLYLINE
  8
72_ARTEK_AKFURNITURE_D2_SH_SHE
 66
     1
 70
     0
 10
0.0
 20
0.0
 30
0.0
  0
VERTEX
  8
72_ARTEK_AKFURNITURE_D2_SH_SHE
 10
2
 20
-0.349
 30
0
  0
VERTEX
  8
72_ARTEK_AKFURNITURE_D2_SH_SHE
 10
2
 20
-0.001
 30
0
  0
VERTEX
  8
72_ARTEK_AKFURNITURE_D2_SH_SHE
 10
2
 20
-0.001
 30
0
  0
VERTEX
  8
72_ARTEK_AKFURNITURE_D2_SH_SHE
 10
1.99998
 20
-0.00080491
 30
0
  0
VERTEX
  8
72_ARTEK_AKFURNITURE_D2_SH_SHE
 10
1.99992
 20
-0.000617317
 30
0
  0
VERTEX
  8
72_ARTEK_AKFURNITURE_D2_SH_SHE
 10
1.99983
 20
-0.00044443
 30
0
  0
VERTEX
  8
72_ARTEK_AKFURNITURE_D2_SH_SHE
 10
1.99971
 20
-0.000292893
 30
0
  0
VERTEX
  8
72_ARTEK_AKFURNITURE_D2_SH_SHE
 10
1.99956
 20
-0.00016853
 30
0
  0
VERTEX
  8
72_ARTEK_AKFURNITURE_D2_SH_SHE
 10
1.99938
 20
-7.61205e-005
 30
0
  0
VERTEX
  8
72_ARTEK_AKFURNITURE_D2_SH_SHE
 10
1.9992
 20
-1.92147e-005
 30
0
  0
VERTEX
  8
72_ARTEK_AKFURNITURE_D2_SH_SHE
 10
1.999
 20
-3.99376e-019
 30
0
  0
VERTEX
  8
72_ARTEK_AKFURNITURE_D2_SH_SHE
 10
1.9135
 20
-0
 30
0
  0
VERTEX
  8
72_ARTEK_AKFURNITURE_D2_SH_SHE
 10
1.9135
 20
-0.051
 30
0
  0
VERTEX
  8
72_ARTEK_AKFURNITURE_D2_SH_SHE
 10
1.9135
 20
-0.051
 30
0
  0
VERTEX
  8
72_ARTEK_AKFURNITURE_D2_SH_SHE
 10
1.91347
 20
-0.0513473
 30
0
  0
VERTEX
  8
72_ARTEK_AKFURNITURE_D2_SH_SHE
 10
1.91338
 20
-0.051684
 30
0
  0
VERTEX
  8
72_ARTEK_AKFURNITURE_D2_SH_SHE
 10
1.91323
 20
-0.052
 30
0
  0
VERTEX
  8
72_ARTEK_AKFURNITURE_D2_SH_SHE
 10
1.91303
 20
-0.0522856
 30
0
  0
VERTEX
  8
72_ARTEK_AKFURNITURE_D2_SH_SHE
 10
1.91279
 20
-0.0525321
 30
0
  0
VERTEX
  8
72_ARTEK_AKFURNITURE_D2_SH_SHE
 10
1.9125
 20
-0.0527321
 30
0
  0
VERTEX
  8
72_ARTEK_AKFURNITURE_D2_SH_SHE
 10
1.91218
 20
-0.0528794
 30
0
  0
VERTEX
  8
72_ARTEK_AKFURNITURE_D2_SH_SHE
 10
1.91185
 20
-0.0529696
 30
0
  0
VERTEX
  8
72_ARTEK_AKFURNITURE_D2_SH_SHE
 10
1.9115
 20
-0.053
 30
0
  0
VERTEX
  8
72_ARTEK_AKFURNITURE_D2_SH_SHE
 10
1.8885
 20
-0.053
 30
0
  0
VERTEX
  8
72_ARTEK_AKFURNITURE_D2_SH_SHE
 10
1.8885
 20
-0.053
 30
0
  0
VERTEX
  8
72_ARTEK_AKFURNITURE_D2_SH_SHE
 10
1.88815
 20
-0.0529696
 30
0
  0
VERTEX
  8
72_ARTEK_AKFURNITURE_D2_SH_SHE
 10
1.88782
 20
-0.0528794
 30
0
  0
VERTEX
  8
72_ARTEK_AKFURNITURE_D2_SH_SHE
 10
1.8875
 20
-0.0527321
 30
0
  0
VERTEX
  8
72_ARTEK_AKFURNITURE_D2_SH_SHE
 10
1.88721
 20
-0.0525321
 30
0
  0
VERTEX
  8
72_ARTEK_AKFURNITURE_D2_SH_SHE
 10
1.88697
 20
-0.0522856
 30
0
  0
VERTEX
  8
72_ARTEK_AKFURNITURE_D2_SH_SHE
 10
1.88677
 20
-0.052
 30
0
  0
VERTEX
  8
72_ARTEK_AKFURNITURE_D2_SH_SHE
 10
1.88662
 20
-0.051684
 30
0
  0
VERTEX
  8
72_ARTEK_AKFURNITURE_D2_SH_SHE
 10
1.88653
 20
-0.0513473
 30
0
  0
VERTEX
  8
72_ARTEK_AKFURNITURE_D2_SH_SHE
 10
1.8865
 20
-0.051
 30
0
  0
VERTEX
  8
72_ARTEK_AKFURNITURE_D2_SH_SHE
 10
1.8865
 20
-0
 30
0
  0
VERTEX
  8
72_ARTEK_AKFURNITURE_D2_SH_SHE
 10
1.0135
 20
-0
 30
0
  0
VERTEX
  8
72_ARTEK_AKFURNITURE_D2_SH_SHE
 10
1.0135
 20
-0.051
 30
0
  0
VERTEX
  8
72_ARTEK_AKFURNITURE_D2_SH_SHE
 10
1.0135
 20
-0.051
 30
0
  0
VERTEX
  8
72_ARTEK_AKFURNITURE_D2_SH_SHE
 10
1.01347
 20
-0.0513473
 30
0
  0
VERTEX
  8
72_ARTEK_AKFURNITURE_D2_SH_SHE
 10
1.01338
 20
-0.051684
 30
0
  0
VERTEX
  8
72_ARTEK_AKFURNITURE_D2_SH_SHE
 10
1.01323
 20
-0.052
 30
0
  0
VERTEX
  8
72_ARTEK_AKFURNITURE_D2_SH_SHE
 10
1.01303
 20
-0.0522856
 30
0
  0
VERTEX
  8
72_ARTEK_AKFURNITURE_D2_SH_SHE
 10
1.01279
 20
-0.0525321
 30
0
  0
VERTEX
  8
72_ARTEK_AKFURNITURE_D2_SH_SHE
 10
1.0125
 20
-0.0527321
 30
0
  0
VERTEX
  8
72_ARTEK_AKFURNITURE_D2_SH_SHE
 10
1.01218
 20
-0.0528794
 30
0
  0
VERTEX
  8
72_ARTEK_AKFURNITURE_D2_SH_SHE
 10
1.01185
 20
-0.0529696
 30
0
  0
VERTEX
  8
72_ARTEK_AKFURNITURE_D2_SH_SHE
 10
1.0115
 20
-0.053
 30
0
  0
VERTEX
  8
72_ARTEK_AKFURNITURE_D2_SH_SHE
 10
0.9885
 20
-0.053
 30
0
  0
VERTEX
  8
72_ARTEK_AKFURNITURE_D2_SH_SHE
 10
0.9885
 20
-0.053
 30
0
  0
VERTEX
  8
72_ARTEK_AKFURNITURE_D2_SH_SHE
 10
0.988153
 20
-0.0529696
 30
0
  0
VERTEX
  8
72_ARTEK_AKFURNITURE_D2_SH_SHE
 10
0.987816
 20
-0.0528794
 30
0
  0
VERTEX
  8
72_ARTEK_AKFURNITURE_D2_SH_SHE
 10
0.9875
 20
-0.0527321
 30
0
  0
VERTEX
  8
72_ARTEK_AKFURNITURE_D2_SH_SHE
 10
0.987214
 20
-0.0525321
 30
0
  0
VERTEX
  8
72_ARTEK_AKFURNITURE_D2_SH_SHE
 10
0.986968
 20
-0.0522856
 30
0
  0
VERTEX
  8
72_ARTEK_AKFURNITURE_D2_SH_SHE
 10
0.986768
 20
-0.052
 30
0
  0
VERTEX
  8
72_ARTEK_AKFURNITURE_D2_SH_SHE
 10
0.986621
 20
-0.051684
 30
0
  0
VERTEX
  8
72_ARTEK_AKFURNITURE_D2_SH_SHE
 10
0.98653
 20
-0.0513473
 30
0
  0
VERTEX
  8
72_ARTEK_AKFURNITURE_D2_SH_SHE
 10
0.9865
 20
-0.051
 30
0
  0
VERTEX
  8
72_ARTEK_AKFURNITURE_D2_SH_SHE
 10
0.9865
 20
-0
 30
0
  0
VERTEX
  8
72_ARTEK_AKFURNITURE_D2_SH_SHE
 10
0.1135
 20
-0
 30
0
  0
VERTEX
  8
72_ARTEK_AKFURNITURE_D2_SH_SHE
 10
0.1135
 20
-0.051
 30
0
  0
VERTEX
  8
72_ARTEK_AKFURNITURE_D2_SH_SHE
 10
0.1135
 20
-0.051
 30
0
  0
VERTEX
  8
72_ARTEK_AKFURNITURE_D2_SH_SHE
 10
0.11347
 20
-0.0513473
 30
0
  0
VERTEX
  8
72_ARTEK_AKFURNITURE_D2_SH_SHE
 10
0.113379
 20
-0.051684
 30
0
  0
VERTEX
  8
72_ARTEK_AKFURNITURE_D2_SH_SHE
 10
0.113232
 20
-0.052
 30
0
  0
VERTEX
  8
72_ARTEK_AKFURNITURE_D2_SH_SHE
 10
0.113032
 20
-0.0522856
 30
0
  0
VERTEX
  8
72_ARTEK_AKFURNITURE_D2_SH_SHE
 10
0.112786
 20
-0.0525321
 30
0
  0
VERTEX
  8
72_ARTEK_AKFURNITURE_D2_SH_SHE
 10
0.1125
 20
-0.0527321
 30
0
  0
VERTEX
  8
72_ARTEK_AKFURNITURE_D2_SH_SHE
 10
0.112184
 20
-0.0528794
 30
0
  0
VERTEX
  8
72_ARTEK_AKFURNITURE_D2_SH_SHE
 10
0.111847
 20
-0.0529696
 30
0
  0
VERTEX
  8
72_ARTEK_AKFURNITURE_D2_SH_SHE
 10
0.1115
 20
-0.053
 30
0
  0
VERTEX
  8
72_ARTEK_AKFURNITURE_D2_SH_SHE
 10
0.0885
 20
-0.053
 30
0
  0
VERTEX
  8
72_ARTEK_AKFURNITURE_D2_SH_SHE
 10
0.0885
 20
-0.053
 30
0
  0
VERTEX
  8
72_ARTEK_AKFURNITURE_D2_SH_SHE
 10
0.0881527
 20
-0.0529696
 30
0
  0
VERTEX
  8
72_ARTEK_AKFURNITURE_D2_SH_SHE
 10
0.087816
 20
-0.0528794
 30
0
  0
VERTEX
  8
72_ARTEK_AKFURNITURE_D2_SH_SHE
 10
0.0875
 20
-0.0527321
 30
0
  0
VERTEX
  8
72_ARTEK_AKFURNITURE_D2_SH_SHE
 10
0.0872144
 20
-0.0525321
 30
0
  0
VERTEX
  8
72_ARTEK_AKFURNITURE_D2_SH_SHE
 10
0.0869679
 20
-0.0522856
 30
0
  0
VERTEX
  8
72_ARTEK_AKFURNITURE_D2_SH_SHE
 10
0.0867679
 20
-0.052
 30
0
  0
VERTEX
  8
72_ARTEK_AKFURNITURE_D2_SH_SHE
 10
0.0866206
 20
-0.051684
 30
0
  0
VERTEX
  8
72_ARTEK_AKFURNITURE_D2_SH_SHE
 10
0.0865304
 20
-0.0513473
 30
0
  0
VERTEX
  8
72_ARTEK_AKFURNITURE_D2_SH_SHE
 10
0.0865
 20
-0.051
 30
0
  0
VERTEX
  8
72_ARTEK_AKFURNITURE_D2_SH_SHE
 10
0.0865
 20
-0
 30
0
  0
VERTEX
  8
72_ARTEK_AKFURNITURE_D2_SH_SHE
 10
0.001
 20
-0
 30
0
  0
VERTEX
  8
72_ARTEK_AKFURNITURE_D2_SH_SHE
 10
0.001
 20
-0
 30
0
  0
VERTEX
  8
72_ARTEK_AKFURNITURE_D2_SH_SHE
 10
0.00080491
 20
-1.92147e-005
 30
0
  0
VERTEX
  8
72_ARTEK_AKFURNITURE_D2_SH_SHE
 10
0.000617317
 20
-7.61205e-005
 30
0
  0
VERTEX
  8
72_ARTEK_AKFURNITURE_D2_SH_SHE
 10
0.00044443
 20
-0.00016853
 30
0
  0
VERTEX
  8
72_ARTEK_AKFURNITURE_D2_SH_SHE
 10
0.000292893
 20
-0.000292893
 30
0
  0
VERTEX
  8
72_ARTEK_AKFURNITURE_D2_SH_SHE
 10
0.00016853
 20
-0.00044443
 30
0
  0
VERTEX
  8
72_ARTEK_AKFURNITURE_D2_SH_SHE
 10
7.61205e-005
 20
-0.000617317
 30
0
  0
VERTEX
  8
72_ARTEK_AKFURNITURE_D2_SH_SHE
 10
1.92147e-005
 20
-0.00080491
 30
0
  0
VERTEX
  8
72_ARTEK_AKFURNITURE_D2_SH_SHE
 10
1.02067e-019
 20
-0.001
 30
0
  0
VERTEX
  8
72_ARTEK_AKFURNITURE_D2_SH_SHE
 10
0
 20
-0.349
 30
0
  0
VERTEX
  8
72_ARTEK_AKFURNITURE_D2_SH_SHE
 10
2
 20
-0.349
 30
0
  0
SEQEND
  0
POLYLINE
  8
72_ARTEK_AKFURNITURE_D2SNAP
 66
     1
 70
     0
 10
0.0
 20
0.0
 30
0.0
  0
VERTEX
  8
72_ARTEK_AKFURNITURE_D2SNAP
 10
0.0125
 20
-0
 30
0
  0
VERTEX
  8
72_ARTEK_AKFURNITURE_D2SNAP
 10
0.0122598
 20
0.00243863
 30
0
  0
VERTEX
  8
72_ARTEK_AKFURNITURE_D2SNAP
 10
0.0115485
 20
0.00478354
 30
0
  0
VERTEX
  8
72_ARTEK_AKFURNITURE_D2SNAP
 10
0.0103934
 20
0.00694463
 30
0
  0
VERTEX
  8
72_ARTEK_AKFURNITURE_D2SNAP
 10
0.00883883
 20
0.00883883
 30
0
  0
VERTEX
  8
72_ARTEK_AKFURNITURE_D2SNAP
 10
0.00694463
 20
0.0103934
 30
0
  0
VERTEX
  8
72_ARTEK_AKFURNITURE_D2SNAP
 10
0.00478354
 20
0.0115485
 30
0
  0
VERTEX
  8
72_ARTEK_AKFURNITURE_D2SNAP
 10
0.00243863
 20
0.0122598
 30
0
  0
VERTEX
  8
72_ARTEK_AKFURNITURE_D2SNAP
 10
1.57667e-018
 20
0.0125
 30
0
  0
VERTEX
  8
72_ARTEK_AKFURNITURE_D2SNAP
 10
-0.00243863
 20
0.0122598
 30
0
  0
VERTEX
  8
72_ARTEK_AKFURNITURE_D2SNAP
 10
-0.00478354
 20
0.0115485
 30
0
  0
VERTEX
  8
72_ARTEK_AKFURNITURE_D2SNAP
 10
-0.00694463
 20
0.0103934
 30
0
  0
VERTEX
  8
72_ARTEK_AKFURNITURE_D2SNAP
 10
-0.00883883
 20
0.00883883
 30
0
  0
VERTEX
  8
72_ARTEK_AKFURNITURE_D2SNAP
 10
-0.0103934
 20
0.00694463
 30
0
  0
VERTEX
  8
72_ARTEK_AKFURNITURE_D2SNAP
 10
-0.0115485
 20
0.00478354
 30
0
  0
VERTEX
  8
72_ARTEK_AKFURNITURE_D2SNAP
 10
-0.0122598
 20
0.00243863
 30
0
  0
VERTEX
  8
72_ARTEK_AKFURNITURE_D2SNAP
 10
-0.0125
 20
3.15316e-018
 30
0
  0
VERTEX
  8
72_ARTEK_AKFURNITURE_D2SNAP
 10
-0.0122598
 20
-0.00243863
 30
0
  0
VERTEX
  8
72_ARTEK_AKFURNITURE_D2SNAP
 10
-0.0115485
 20
-0.00478354
 30
0
  0
VERTEX
  8
72_ARTEK_AKFURNITURE_D2SNAP
 10
-0.0103934
 20
-0.00694463
 30
0
  0
VERTEX
  8
72_ARTEK_AKFURNITURE_D2SNAP
 10
-0.00883883
 20
-0.00883883
 30
0
  0
VERTEX
  8
72_ARTEK_AKFURNITURE_D2SNAP
 10
-0.00694463
 20
-0.0103934
 30
0
  0
VERTEX
  8
72_ARTEK_AKFURNITURE_D2SNAP
 10
-0.00478354
 20
-0.0115485
 30
0
  0
VERTEX
  8
72_ARTEK_AKFURNITURE_D2SNAP
 10
-0.00243863
 20
-0.0122598
 30
0
  0
VERTEX
  8
72_ARTEK_AKFURNITURE_D2SNAP
 10
-4.73102e-018
 20
-0.0125
 30
0
  0
VERTEX
  8
72_ARTEK_AKFURNITURE_D2SNAP
 10
0.00243863
 20
-0.0122598
 30
0
  0
VERTEX
  8
72_ARTEK_AKFURNITURE_D2SNAP
 10
0.00478354
 20
-0.0115485
 30
0
  0
VERTEX
  8
72_ARTEK_AKFURNITURE_D2SNAP
 10
0.00694463
 20
-0.0103934
 30
0
  0
VERTEX
  8
72_ARTEK_AKFURNITURE_D2SNAP
 10
0.00883883
 20
-0.00883883
 30
0
  0
VERTEX
  8
72_ARTEK_AKFURNITURE_D2SNAP
 10
0.0103934
 20
-0.00694463
 30
0
  0
VERTEX
  8
72_ARTEK_AKFURNITURE_D2SNAP
 10
0.0115485
 20
-0.00478354
 30
0
  0
VERTEX
  8
72_ARTEK_AKFURNITURE_D2SNAP
 10
0.0122598
 20
-0.00243863
 30
0
  0
VERTEX
  8
72_ARTEK_AKFURNITURE_D2SNAP
 10
0.0125
 20
-0
 30
0
  0
SEQEND
  0
POLYLINE
  8
72_ARTEK_AKFURNITURE_D2SNAP
 66
     1
 70
     0
 10
0.0
 20
0.0
 30
0.0
  0
VERTEX
  8
72_ARTEK_AKFURNITURE_D2SNAP
 10
-0.0176777
 20
-0.0176777
 30
0
  0
VERTEX
  8
72_ARTEK_AKFURNITURE_D2SNAP
 10
0.0176777
 20
0.0176777
 30
0
  0
SEQEND
  0
POLYLINE
  8
72_ARTEK_AKFURNITURE_D2SNAP
 66
     1
 70
     0
 10
0.0
 20
0.0
 30
0.0
  0
VERTEX
  8
72_ARTEK_AKFURNITURE_D2SNAP
 10
-0.0176777
 20
0.0176777
 30
0
  0
VERTEX
  8
72_ARTEK_AKFURNITURE_D2SNAP
 10
0.0176777
 20
-0.0176777
 30
0
  0
SEQEND
  0
POLYLINE
  8
72_ARTEK_AKFURNITURE_D2_SH_ATT
 66
     1
 70
     0
 10
0.0
 20
0.0
 30
0.0
  0
VERTEX
  8
72_ARTEK_AKFURNITURE_D2_SH_ATT
 10
0.0885
 20
-0.0531477
 30
0
  0
VERTEX
  8
72_ARTEK_AKFURNITURE_D2_SH_ATT
 10
0.0882746
 20
-0.0531477
 30
0
  0
VERTEX
  8
72_ARTEK_AKFURNITURE_D2_SH_ATT
 10
0.0882746
 20
-0.0531477
 30
0
  0
VERTEX
  8
72_ARTEK_AKFURNITURE_D2_SH_ATT
 10
0.0879678
 20
-0.053124
 30
0
  0
VERTEX
  8
72_ARTEK_AKFURNITURE_D2_SH_ATT
 10
0.0876682
 20
-0.0530535
 30
0
  0
VERTEX
  8
72_ARTEK_AKFURNITURE_D2_SH_ATT
 10
0.0875
 20
-0.053
 30
0
  0
VERTEX
  8
72_ARTEK_AKFURNITURE_D2_SH_ATT
 10
0.0875
 20
-0.302245
 30
0
  0
VERTEX
  8
72_ARTEK_AKFURNITURE_D2_SH_ATT
 10
0.0875
 20
-0.302245
 30
0
  0
VERTEX
  8
72_ARTEK_AKFURNITURE_D2_SH_ATT
 10
0.0875419
 20
-0.302723
 30
0
  0
VERTEX
  8
72_ARTEK_AKFURNITURE_D2_SH_ATT
 10
0.0876662
 20
-0.303187
 30
0
  0
VERTEX
  8
72_ARTEK_AKFURNITURE_D2_SH_ATT
 10
0.0878692
 20
-0.303622
 30
0
  0
VERTEX
  8
72_ARTEK_AKFURNITURE_D2_SH_ATT
 10
0.0881447
 20
-0.304016
 30
0
  0
VERTEX
  8
72_ARTEK_AKFURNITURE_D2_SH_ATT
 10
0.0884843
 20
-0.304355
 30
0
  0
VERTEX
  8
72_ARTEK_AKFURNITURE_D2_SH_ATT
 10
0.0888777
 20
-0.304631
 30
0
  0
VERTEX
  8
72_ARTEK_AKFURNITURE_D2_SH_ATT
 10
0.0893131
 20
-0.304834
 30
0
  0
VERTEX
  8
72_ARTEK_AKFURNITURE_D2_SH_ATT
 10
0.089777
 20
-0.304958
 30
0
  0
VERTEX
  8
72_ARTEK_AKFURNITURE_D2_SH_ATT
 10
0.0902555
 20
-0.305
 30
0
  0
VERTEX
  8
72_ARTEK_AKFURNITURE_D2_SH_ATT
 10
0.0925
 20
-0.305
 30
0
  0
VERTEX
  8
72_ARTEK_AKFURNITURE_D2_SH_ATT
 10
0.1075
 20
-0.305
 30
0
  0
VERTEX
  8
72_ARTEK_AKFURNITURE_D2_SH_ATT
 10
0.108285
 20
-0.305
 30
0
  0
VERTEX
  8
72_ARTEK_AKFURNITURE_D2_SH_ATT
 10
0.108285
 20
-0.305
 30
0
  0
VERTEX
  8
72_ARTEK_AKFURNITURE_D2_SH_ATT
 10
0.10912
 20
-0.30493
 30
0
  0
VERTEX
  8
72_ARTEK_AKFURNITURE_D2_SH_ATT
 10
0.109932
 20
-0.304721
 30
0
  0
VERTEX
  8
72_ARTEK_AKFURNITURE_D2_SH_ATT
 10
0.110698
 20
-0.304379
 30
0
  0
VERTEX
  8
72_ARTEK_AKFURNITURE_D2_SH_ATT
 10
0.111036
 20
-0.304193
 30
0
  0
VERTEX
  8
72_ARTEK_AKFURNITURE_D2_SH_ATT
 10
0.1115
 20
-0.303937
 30
0
  0
VERTEX
  8
72_ARTEK_AKFURNITURE_D2_SH_ATT
 10
0.1115
 20
-0.303937
 30
0
  0
VERTEX
  8
72_ARTEK_AKFURNITURE_D2_SH_ATT
 10
0.111785
 20
-0.303745
 30
0
  0
VERTEX
  8
72_ARTEK_AKFURNITURE_D2_SH_ATT
 10
0.112031
 20
-0.303506
 30
0
  0
VERTEX
  8
72_ARTEK_AKFURNITURE_D2_SH_ATT
 10
0.112231
 20
-0.303227
 30
0
  0
VERTEX
  8
72_ARTEK_AKFURNITURE_D2_SH_ATT
 10
0.112379
 20
-0.302917
 30
0
  0
VERTEX
  8
72_ARTEK_AKFURNITURE_D2_SH_ATT
 10
0.11247
 20
-0.302586
 30
0
  0
VERTEX
  8
72_ARTEK_AKFURNITURE_D2_SH_ATT
 10
0.1125
 20
-0.302245
 30
0
  0
VERTEX
  8
72_ARTEK_AKFURNITURE_D2_SH_ATT
 10
0.1125
 20
-0.053
 30
0
  0
VERTEX
  8
72_ARTEK_AKFURNITURE_D2_SH_ATT
 10
0.112332
 20
-0.0530535
 30
0
  0
VERTEX
  8
72_ARTEK_AKFURNITURE_D2_SH_ATT
 10
0.112332
 20
-0.0530535
 30
0
  0
VERTEX
  8
72_ARTEK_AKFURNITURE_D2_SH_ATT
 10
0.112032
 20
-0.053124
 30
0
  0
VERTEX
  8
72_ARTEK_AKFURNITURE_D2_SH_ATT
 10
0.111725
 20
-0.0531477
 30
0
  0
VERTEX
  8
72_ARTEK_AKFURNITURE_D2_SH_ATT
 10
0.1115
 20
-0.0531477
 30
0
  0
VERTEX
  8
72_ARTEK_AKFURNITURE_D2_SH_ATT
 10
0.0885
 20
-0.0531477
 30
0
  0
SEQEND
  0
POLYLINE
  8
72_ARTEK_AKFURNITURE_D2_SH_ATT
 66
     1
 70
     0
 10
0.0
 20
0.0
 30
0.0
  0
VERTEX
  8
72_ARTEK_AKFURNITURE_D2_SH_ATT
 10
1.0115
 20
-0.0531477
 30
0
  0
VERTEX
  8
72_ARTEK_AKFURNITURE_D2_SH_ATT
 10
1.01173
 20
-0.0531477
 30
0
  0
VERTEX
  8
72_ARTEK_AKFURNITURE_D2_SH_ATT
 10
1.01173
 20
-0.0531477
 30
0
  0
VERTEX
  8
72_ARTEK_AKFURNITURE_D2_SH_ATT
 10
1.01203
 20
-0.053124
 30
0
  0
VERTEX
  8
72_ARTEK_AKFURNITURE_D2_SH_ATT
 10
1.01233
 20
-0.0530535
 30
0
  0
VERTEX
  8
72_ARTEK_AKFURNITURE_D2_SH_ATT
 10
1.0125
 20
-0.053
 30
0
  0
VERTEX
  8
72_ARTEK_AKFURNITURE_D2_SH_ATT
 10
1.0125
 20
-0.302245
 30
0
  0
VERTEX
  8
72_ARTEK_AKFURNITURE_D2_SH_ATT
 10
1.0125
 20
-0.302245
 30
0
  0
VERTEX
  8
72_ARTEK_AKFURNITURE_D2_SH_ATT
 10
1.01246
 20
-0.302723
 30
0
  0
VERTEX
  8
72_ARTEK_AKFURNITURE_D2_SH_ATT
 10
1.01233
 20
-0.303187
 30
0
  0
VERTEX
  8
72_ARTEK_AKFURNITURE_D2_SH_ATT
 10
1.01213
 20
-0.303622
 30
0
  0
VERTEX
  8
72_ARTEK_AKFURNITURE_D2_SH_ATT
 10
1.01186
 20
-0.304016
 30
0
  0
VERTEX
  8
72_ARTEK_AKFURNITURE_D2_SH_ATT
 10
1.01152
 20
-0.304355
 30
0
  0
VERTEX
  8
72_ARTEK_AKFURNITURE_D2_SH_ATT
 10
1.01112
 20
-0.304631
 30
0
  0
VERTEX
  8
72_ARTEK_AKFURNITURE_D2_SH_ATT
 10
1.01069
 20
-0.304834
 30
0
  0
VERTEX
  8
72_ARTEK_AKFURNITURE_D2_SH_ATT
 10
1.01022
 20
-0.304958
 30
0
  0
VERTEX
  8
72_ARTEK_AKFURNITURE_D2_SH_ATT
 10
1.00974
 20
-0.305
 30
0
  0
VERTEX
  8
72_ARTEK_AKFURNITURE_D2_SH_ATT
 10
1.0075
 20
-0.305
 30
0
  0
VERTEX
  8
72_ARTEK_AKFURNITURE_D2_SH_ATT
 10
0.9925
 20
-0.305
 30
0
  0
VERTEX
  8
72_ARTEK_AKFURNITURE_D2_SH_ATT
 10
0.991715
 20
-0.305
 30
0
  0
VERTEX
  8
72_ARTEK_AKFURNITURE_D2_SH_ATT
 10
0.991715
 20
-0.305
 30
0
  0
VERTEX
  8
72_ARTEK_AKFURNITURE_D2_SH_ATT
 10
0.99088
 20
-0.30493
 30
0
  0
VERTEX
  8
72_ARTEK_AKFURNITURE_D2_SH_ATT
 10
0.990068
 20
-0.304721
 30
0
  0
VERTEX
  8
72_ARTEK_AKFURNITURE_D2_SH_ATT
 10
0.989302
 20
-0.304379
 30
0
  0
VERTEX
  8
72_ARTEK_AKFURNITURE_D2_SH_ATT
 10
0.988964
 20
-0.304193
 30
0
  0
VERTEX
  8
72_ARTEK_AKFURNITURE_D2_SH_ATT
 10
0.9885
 20
-0.303937
 30
0
  0
VERTEX
  8
72_ARTEK_AKFURNITURE_D2_SH_ATT
 10
0.9885
 20
-0.303937
 30
0
  0
VERTEX
  8
72_ARTEK_AKFURNITURE_D2_SH_ATT
 10
0.988215
 20
-0.303745
 30
0
  0
VERTEX
  8
72_ARTEK_AKFURNITURE_D2_SH_ATT
 10
0.987969
 20
-0.303506
 30
0
  0
VERTEX
  8
72_ARTEK_AKFURNITURE_D2_SH_ATT
 10
0.987769
 20
-0.303227
 30
0
  0
VERTEX
  8
72_ARTEK_AKFURNITURE_D2_SH_ATT
 10
0.987621
 20
-0.302917
 30
0
  0
VERTEX
  8
72_ARTEK_AKFURNITURE_D2_SH_ATT
 10
0.98753
 20
-0.302586
 30
0
  0
VERTEX
  8
72_ARTEK_AKFURNITURE_D2_SH_ATT
 10
0.9875
 20
-0.302245
 30
0
  0
VERTEX
  8
72_ARTEK_AKFURNITURE_D2_SH_ATT
 10
0.9875
 20
-0.053
 30
0
  0
VERTEX
  8
72_ARTEK_AKFURNITURE_D2_SH_ATT
 10
0.987668
 20
-0.0530535
 30
0
  0
VERTEX
  8
72_ARTEK_AKFURNITURE_D2_SH_ATT
 10
0.987668
 20
-0.0530535
 30
0
  0
VERTEX
  8
72_ARTEK_AKFURNITURE_D2_SH_ATT
 10
0.987968
 20
-0.053124
 30
0
  0
VERTEX
  8
72_ARTEK_AKFURNITURE_D2_SH_ATT
 10
0.988275
 20
-0.0531477
 30
0
  0
VERTEX
  8
72_ARTEK_AKFURNITURE_D2_SH_ATT
 10
0.9885
 20
-0.0531477
 30
0
  0
VERTEX
  8
72_ARTEK_AKFURNITURE_D2_SH_ATT
 10
1.0115
 20
-0.0531477
 30
0
  0
SEQEND
  0
POLYLINE
  8
72_ARTEK_AKFURNITURE_D2_SH_ATT
 66
     1
 70
     0
 10
0.0
 20
0.0
 30
0.0
  0
VERTEX
  8
72_ARTEK_AKFURNITURE_D2_SH_ATT
 10
1.9115
 20
-0.0531477
 30
0
  0
VERTEX
  8
72_ARTEK_AKFURNITURE_D2_SH_ATT
 10
1.91173
 20
-0.0531477
 30
0
  0
VERTEX
  8
72_ARTEK_AKFURNITURE_D2_SH_ATT
 10
1.91173
 20
-0.0531477
 30
0
  0
VERTEX
  8
72_ARTEK_AKFURNITURE_D2_SH_ATT
 10
1.91203
 20
-0.053124
 30
0
  0
VERTEX
  8
72_ARTEK_AKFURNITURE_D2_SH_ATT
 10
1.91233
 20
-0.0530535
 30
0
  0
VERTEX
  8
72_ARTEK_AKFURNITURE_D2_SH_ATT
 10
1.9125
 20
-0.053
 30
0
  0
VERTEX
  8
72_ARTEK_AKFURNITURE_D2_SH_ATT
 10
1.9125
 20
-0.302245
 30
0
  0
VERTEX
  8
72_ARTEK_AKFURNITURE_D2_SH_ATT
 10
1.9125
 20
-0.302245
 30
0
  0
VERTEX
  8
72_ARTEK_AKFURNITURE_D2_SH_ATT
 10
1.91246
 20
-0.302723
 30
0
  0
VERTEX
  8
72_ARTEK_AKFURNITURE_D2_SH_ATT
 10
1.91233
 20
-0.303187
 30
0
  0
VERTEX
  8
72_ARTEK_AKFURNITURE_D2_SH_ATT
 10
1.91213
 20
-0.303622
 30
0
  0
VERTEX
  8
72_ARTEK_AKFURNITURE_D2_SH_ATT
 10
1.91186
 20
-0.304016
 30
0
  0
VERTEX
  8
72_ARTEK_AKFURNITURE_D2_SH_ATT
 10
1.91152
 20
-0.304355
 30
0
  0
VERTEX
  8
72_ARTEK_AKFURNITURE_D2_SH_ATT
 10
1.91112
 20
-0.304631
 30
0
  0
VERTEX
  8
72_ARTEK_AKFURNITURE_D2_SH_ATT
 10
1.91069
 20
-0.304834
 30
0
  0
VERTEX
  8
72_ARTEK_AKFURNITURE_D2_SH_ATT
 10
1.91022
 20
-0.304958
 30
0
  0
VERTEX
  8
72_ARTEK_AKFURNITURE_D2_SH_ATT
 10
1.90974
 20
-0.305
 30
0
  0
VERTEX
  8
72_ARTEK_AKFURNITURE_D2_SH_ATT
 10
1.9075
 20
-0.305
 30
0
  0
VERTEX
  8
72_ARTEK_AKFURNITURE_D2_SH_ATT
 10
1.8925
 20
-0.305
 30
0
  0
VERTEX
  8
72_ARTEK_AKFURNITURE_D2_SH_ATT
 10
1.89172
 20
-0.305
 30
0
  0
VERTEX
  8
72_ARTEK_AKFURNITURE_D2_SH_ATT
 10
1.89172
 20
-0.305
 30
0
  0
VERTEX
  8
72_ARTEK_AKFURNITURE_D2_SH_ATT
 10
1.89088
 20
-0.30493
 30
0
  0
VERTEX
  8
72_ARTEK_AKFURNITURE_D2_SH_ATT
 10
1.89007
 20
-0.304721
 30
0
  0
VERTEX
  8
72_ARTEK_AKFURNITURE_D2_SH_ATT
 10
1.8893
 20
-0.304379
 30
0
  0
VERTEX
  8
72_ARTEK_AKFURNITURE_D2_SH_ATT
 10
1.88896
 20
-0.304193
 30
0
  0
VERTEX
  8
72_ARTEK_AKFURNITURE_D2_SH_ATT
 10
1.8885
 20
-0.303937
 30
0
  0
VERTEX
  8
72_ARTEK_AKFURNITURE_D2_SH_ATT
 10
1.8885
 20
-0.303937
 30
0
  0
VERTEX
  8
72_ARTEK_AKFURNITURE_D2_SH_ATT
 10
1.88821
 20
-0.303745
 30
0
  0
VERTEX
  8
72_ARTEK_AKFURNITURE_D2_SH_ATT
 10
1.88797
 20
-0.303506
 30
0
  0
VERTEX
  8
72_ARTEK_AKFURNITURE_D2_SH_ATT
 10
1.88777
 20
-0.303227
 30
0
  0
VERTEX
  8
72_ARTEK_AKFURNITURE_D2_SH_ATT
 10
1.88762
 20
-0.302917
 30
0
  0
VERTEX
  8
72_ARTEK_AKFURNITURE_D2_SH_ATT
 10
1.88753
 20
-0.302586
 30
0
  0
VERTEX
  8
72_ARTEK_AKFURNITURE_D2_SH_ATT
 10
1.8875
 20
-0.302245
 30
0
  0
VERTEX
  8
72_ARTEK_AKFURNITURE_D2_SH_ATT
 10
1.8875
 20
-0.053
 30
0
  0
VERTEX
  8
72_ARTEK_AKFURNITURE_D2_SH_ATT
 10
1.88767
 20
-0.0530535
 30
0
  0
VERTEX
  8
72_ARTEK_AKFURNITURE_D2_SH_ATT
 10
1.88767
 20
-0.0530535
 30
0
  0
VERTEX
  8
72_ARTEK_AKFURNITURE_D2_SH_ATT
 10
1.88797
 20
-0.053124
 30
0
  0
VERTEX
  8
72_ARTEK_AKFURNITURE_D2_SH_ATT
 10
1.88827
 20
-0.0531477
 30
0
  0
VERTEX
  8
72_ARTEK_AKFURNITURE_D2_SH_ATT
 10
1.8885
 20
-0.0531477
 30
0
  0
VERTEX
  8
72_ARTEK_AKFURNITURE_D2_SH_ATT
 10
1.9115
 20
-0.0531477
 30
0
  0
SEQEND
  0
POLYLINE
  8
72_ARTEK_AKFURNITURE_D2SNAP
 66
     1
 70
     0
 10
0.0
 20
0.0
 30
0.0
  0
VERTEX
  8
72_ARTEK_AKFURNITURE_D2SNAP
 10
0.0125
 20
-0
 30
0
  0
VERTEX
  8
72_ARTEK_AKFURNITURE_D2SNAP
 10
0.0122598
 20
0.00243863
 30
0
  0
VERTEX
  8
72_ARTEK_AKFURNITURE_D2SNAP
 10
0.0115485
 20
0.00478354
 30
0
  0
VERTEX
  8
72_ARTEK_AKFURNITURE_D2SNAP
 10
0.0103934
 20
0.00694463
 30
0
  0
VERTEX
  8
72_ARTEK_AKFURNITURE_D2SNAP
 10
0.00883883
 20
0.00883883
 30
0
  0
VERTEX
  8
72_ARTEK_AKFURNITURE_D2SNAP
 10
0.00694463
 20
0.0103934
 30
0
  0
VERTEX
  8
72_ARTEK_AKFURNITURE_D2SNAP
 10
0.00478354
 20
0.0115485
 30
0
  0
VERTEX
  8
72_ARTEK_AKFURNITURE_D2SNAP
 10
0.00243863
 20
0.0122598
 30
0
  0
VERTEX
  8
72_ARTEK_AKFURNITURE_D2SNAP
 10
1.57667e-018
 20
0.0125
 30
0
  0
VERTEX
  8
72_ARTEK_AKFURNITURE_D2SNAP
 10
-0.00243863
 20
0.0122598
 30
0
  0
VERTEX
  8
72_ARTEK_AKFURNITURE_D2SNAP
 10
-0.00478354
 20
0.0115485
 30
0
  0
VERTEX
  8
72_ARTEK_AKFURNITURE_D2SNAP
 10
-0.00694463
 20
0.0103934
 30
0
  0
VERTEX
  8
72_ARTEK_AKFURNITURE_D2SNAP
 10
-0.00883883
 20
0.00883883
 30
0
  0
VERTEX
  8
72_ARTEK_AKFURNITURE_D2SNAP
 10
-0.0103934
 20
0.00694463
 30
0
  0
VERTEX
  8
72_ARTEK_AKFURNITURE_D2SNAP
 10
-0.0115485
 20
0.00478354
 30
0
  0
VERTEX
  8
72_ARTEK_AKFURNITURE_D2SNAP
 10
-0.0122598
 20
0.00243863
 30
0
  0
VERTEX
  8
72_ARTEK_AKFURNITURE_D2SNAP
 10
-0.0125
 20
3.15316e-018
 30
0
  0
VERTEX
  8
72_ARTEK_AKFURNITURE_D2SNAP
 10
-0.0122598
 20
-0.00243863
 30
0
  0
VERTEX
  8
72_ARTEK_AKFURNITURE_D2SNAP
 10
-0.0115485
 20
-0.00478354
 30
0
  0
VERTEX
  8
72_ARTEK_AKFURNITURE_D2SNAP
 10
-0.0103934
 20
-0.00694463
 30
0
  0
VERTEX
  8
72_ARTEK_AKFURNITURE_D2SNAP
 10
-0.00883883
 20
-0.00883883
 30
0
  0
VERTEX
  8
72_ARTEK_AKFURNITURE_D2SNAP
 10
-0.00694463
 20
-0.0103934
 30
0
  0
VERTEX
  8
72_ARTEK_AKFURNITURE_D2SNAP
 10
-0.00478354
 20
-0.0115485
 30
0
  0
VERTEX
  8
72_ARTEK_AKFURNITURE_D2SNAP
 10
-0.00243863
 20
-0.0122598
 30
0
  0
VERTEX
  8
72_ARTEK_AKFURNITURE_D2SNAP
 10
-4.73102e-018
 20
-0.0125
 30
0
  0
VERTEX
  8
72_ARTEK_AKFURNITURE_D2SNAP
 10
0.00243863
 20
-0.0122598
 30
0
  0
VERTEX
  8
72_ARTEK_AKFURNITURE_D2SNAP
 10
0.00478354
 20
-0.0115485
 30
0
  0
VERTEX
  8
72_ARTEK_AKFURNITURE_D2SNAP
 10
0.00694463
 20
-0.0103934
 30
0
  0
VERTEX
  8
72_ARTEK_AKFURNITURE_D2SNAP
 10
0.00883883
 20
-0.00883883
 30
0
  0
VERTEX
  8
72_ARTEK_AKFURNITURE_D2SNAP
 10
0.0103934
 20
-0.00694463
 30
0
  0
VERTEX
  8
72_ARTEK_AKFURNITURE_D2SNAP
 10
0.0115485
 20
-0.00478354
 30
0
  0
VERTEX
  8
72_ARTEK_AKFURNITURE_D2SNAP
 10
0.0122598
 20
-0.00243863
 30
0
  0
VERTEX
  8
72_ARTEK_AKFURNITURE_D2SNAP
 10
0.0125
 20
-0
 30
0
  0
SEQEND
  0
POLYLINE
  8
72_ARTEK_AKFURNITURE_D2SNAP
 66
     1
 70
     0
 10
0.0
 20
0.0
 30
0.0
  0
VERTEX
  8
72_ARTEK_AKFURNITURE_D2SNAP
 10
-0.0176777
 20
-0.0176777
 30
0
  0
VERTEX
  8
72_ARTEK_AKFURNITURE_D2SNAP
 10
0.0176777
 20
0.0176777
 30
0
  0
SEQEND
  0
POLYLINE
  8
72_ARTEK_AKFURNITURE_D2SNAP
 66
     1
 70
     0
 10
0.0
 20
0.0
 30
0.0
  0
VERTEX
  8
72_ARTEK_AKFURNITURE_D2SNAP
 10
-0.0176777
 20
0.0176777
 30
0
  0
VERTEX
  8
72_ARTEK_AKFURNITURE_D2SNAP
 10
0.0176777
 20
-0.0176777
 30
0
  0
SEQEND
  0
POLYLINE
  8
72_ARTEK_AKFURNITURE_D2_SH_FRA
 66
     1
 70
     0
 10
0.0
 20
0.0
 30
0.0
  0
VERTEX
  8
72_ARTEK_AKFURNITURE_D2_SH_FRA
 10
0.088
 20
-0.001
 30
0
  0
VERTEX
  8
72_ARTEK_AKFURNITURE_D2_SH_FRA
 10
0.088
 20
-0.049
 30
0
  0
VERTEX
  8
72_ARTEK_AKFURNITURE_D2_SH_FRA
 10
0.088
 20
-0.049
 30
0
  0
VERTEX
  8
72_ARTEK_AKFURNITURE_D2_SH_FRA
 10
0.0880192
 20
-0.0491951
 30
0
  0
VERTEX
  8
72_ARTEK_AKFURNITURE_D2_SH_FRA
 10
0.0880761
 20
-0.0493827
 30
0
  0
VERTEX
  8
72_ARTEK_AKFURNITURE_D2_SH_FRA
 10
0.0881685
 20
-0.0495556
 30
0
  0
VERTEX
  8
72_ARTEK_AKFURNITURE_D2_SH_FRA
 10
0.0882929
 20
-0.0497071
 30
0
  0
VERTEX
  8
72_ARTEK_AKFURNITURE_D2_SH_FRA
 10
0.0884444
 20
-0.0498315
 30
0
  0
VERTEX
  8
72_ARTEK_AKFURNITURE_D2_SH_FRA
 10
0.0886173
 20
-0.0499239
 30
0
  0
VERTEX
  8
72_ARTEK_AKFURNITURE_D2_SH_FRA
 10
0.0888049
 20
-0.0499808
 30
0
  0
VERTEX
  8
72_ARTEK_AKFURNITURE_D2_SH_FRA
 10
0.089
 20
-0.05
 30
0
  0
VERTEX
  8
72_ARTEK_AKFURNITURE_D2_SH_FRA
 10
0.111
 20
-0.05
 30
0
  0
VERTEX
  8
72_ARTEK_AKFURNITURE_D2_SH_FRA
 10
0.111
 20
-0.05
 30
0
  0
VERTEX
  8
72_ARTEK_AKFURNITURE_D2_SH_FRA
 10
0.111174
 20
-0.0499848
 30
0
  0
VERTEX
  8
72_ARTEK_AKFURNITURE_D2_SH_FRA
 10
0.111342
 20
-0.0499397
 30
0
  0
VERTEX
  8
72_ARTEK_AKFURNITURE_D2_SH_FRA
 10
0.1115
 20
-0.049866
 30
0
  0
VERTEX
  8
72_ARTEK_AKFURNITURE_D2_SH_FRA
 10
0.111643
 20
-0.049766
 30
0
  0
VERTEX
  8
72_ARTEK_AKFURNITURE_D2_SH_FRA
 10
0.111766
 20
-0.0496428
 30
0
  0
VERTEX
  8
72_ARTEK_AKFURNITURE_D2_SH_FRA
 10
0.111866
 20
-0.0495
 30
0
  0
VERTEX
  8
72_ARTEK_AKFURNITURE_D2_SH_FRA
 10
0.11194
 20
-0.049342
 30
0
  0
VERTEX
  8
72_ARTEK_AKFURNITURE_D2_SH_FRA
 10
0.111985
 20
-0.0491736
 30
0
  0
VERTEX
  8
72_ARTEK_AKFURNITURE_D2_SH_FRA
 10
0.112
 20
-0.049
 30
0
  0
VERTEX
  8
72_ARTEK_AKFURNITURE_D2_SH_FRA
 10
0.112
 20
-0.001
 30
0
  0
VERTEX
  8
72_ARTEK_AKFURNITURE_D2_SH_FRA
 10
0.112
 20
-0.001
 30
0
  0
VERTEX
  8
72_ARTEK_AKFURNITURE_D2_SH_FRA
 10
0.111985
 20
-0.000826352
 30
0
  0
VERTEX
  8
72_ARTEK_AKFURNITURE_D2_SH_FRA
 10
0.11194
 20
-0.00065798
 30
0
  0
VERTEX
  8
72_ARTEK_AKFURNITURE_D2_SH_FRA
 10
0.111866
 20
-0.0005
 30
0
  0
VERTEX
  8
72_ARTEK_AKFURNITURE_D2_SH_FRA
 10
0.111766
 20
-0.000357212
 30
0
  0
VERTEX
  8
72_ARTEK_AKFURNITURE_D2_SH_FRA
 10
0.111643
 20
-0.000233956
 30
0
  0
VERTEX
  8
72_ARTEK_AKFURNITURE_D2_SH_FRA
 10
0.1115
 20
-0.000133975
 30
0
  0
VERTEX
  8
72_ARTEK_AKFURNITURE_D2_SH_FRA
 10
0.111342
 20
-6.03074e-005
 30
0
  0
VERTEX
  8
72_ARTEK_AKFURNITURE_D2_SH_FRA
 10
0.111174
 20
-1.51922e-005
 30
0
  0
VERTEX
  8
72_ARTEK_AKFURNITURE_D2_SH_FRA
 10
0.111
 20
4.75397e-019
 30
0
  0
VERTEX
  8
72_ARTEK_AKFURNITURE_D2_SH_FRA
 10
0.089
 20
-0
 30
0
  0
VERTEX
  8
72_ARTEK_AKFURNITURE_D2_SH_FRA
 10
0.089
 20
-0
 30
0
  0
VERTEX
  8
72_ARTEK_AKFURNITURE_D2_SH_FRA
 10
0.0888049
 20
-1.92147e-005
 30
0
  0
VERTEX
  8
72_ARTEK_AKFURNITURE_D2_SH_FRA
 10
0.0886173
 20
-7.61205e-005
 30
0
  0
VERTEX
  8
72_ARTEK_AKFURNITURE_D2_SH_FRA
 10
0.0884444
 20
-0.00016853
 30
0
  0
VERTEX
  8
72_ARTEK_AKFURNITURE_D2_SH_FRA
 10
0.0882929
 20
-0.000292893
 30
0
  0
VERTEX
  8
72_ARTEK_AKFURNITURE_D2_SH_FRA
 10
0.0881685
 20
-0.00044443
 30
0
  0
VERTEX
  8
72_ARTEK_AKFURNITURE_D2_SH_FRA
 10
0.0880761
 20
-0.000617317
 30
0
  0
VERTEX
  8
72_ARTEK_AKFURNITURE_D2_SH_FRA
 10
0.0880192
 20
-0.00080491
 30
0
  0
VERTEX
  8
72_ARTEK_AKFURNITURE_D2_SH_FRA
 10
0.088
 20
-0.001
 30
0
  0
SEQEND
  0
POLYLINE
  8
72_ARTEK_AKFURNITURE_D2_SH_FRA
 66
     1
 70
     0
 10
0.0
 20
0.0
 30
0.0
  0
VERTEX
  8
72_ARTEK_AKFURNITURE_D2_SH_FRA
 10
1.012
 20
-0.001
 30
0
  0
VERTEX
  8
72_ARTEK_AKFURNITURE_D2_SH_FRA
 10
1.012
 20
-0.049
 30
0
  0
VERTEX
  8
72_ARTEK_AKFURNITURE_D2_SH_FRA
 10
1.012
 20
-0.049
 30
0
  0
VERTEX
  8
72_ARTEK_AKFURNITURE_D2_SH_FRA
 10
1.01198
 20
-0.0491951
 30
0
  0
VERTEX
  8
72_ARTEK_AKFURNITURE_D2_SH_FRA
 10
1.01192
 20
-0.0493827
 30
0
  0
VERTEX
  8
72_ARTEK_AKFURNITURE_D2_SH_FRA
 10
1.01183
 20
-0.0495556
 30
0
  0
VERTEX
  8
72_ARTEK_AKFURNITURE_D2_SH_FRA
 10
1.01171
 20
-0.0497071
 30
0
  0
VERTEX
  8
72_ARTEK_AKFURNITURE_D2_SH_FRA
 10
1.01156
 20
-0.0498315
 30
0
  0
VERTEX
  8
72_ARTEK_AKFURNITURE_D2_SH_FRA
 10
1.01138
 20
-0.0499239
 30
0
  0
VERTEX
  8
72_ARTEK_AKFURNITURE_D2_SH_FRA
 10
1.0112
 20
-0.0499808
 30
0
  0
VERTEX
  8
72_ARTEK_AKFURNITURE_D2_SH_FRA
 10
1.011
 20
-0.05
 30
0
  0
VERTEX
  8
72_ARTEK_AKFURNITURE_D2_SH_FRA
 10
0.989
 20
-0.05
 30
0
  0
VERTEX
  8
72_ARTEK_AKFURNITURE_D2_SH_FRA
 10
0.989
 20
-0.05
 30
0
  0
VERTEX
  8
72_ARTEK_AKFURNITURE_D2_SH_FRA
 10
0.988826
 20
-0.0499848
 30
0
  0
VERTEX
  8
72_ARTEK_AKFURNITURE_D2_SH_FRA
 10
0.988658
 20
-0.0499397
 30
0
  0
VERTEX
  8
72_ARTEK_AKFURNITURE_D2_SH_FRA
 10
0.9885
 20
-0.049866
 30
0
  0
VERTEX
  8
72_ARTEK_AKFURNITURE_D2_SH_FRA
 10
0.988357
 20
-0.049766
 30
0
  0
VERTEX
  8
72_ARTEK_AKFURNITURE_D2_SH_FRA
 10
0.988234
 20
-0.0496428
 30
0
  0
VERTEX
  8
72_ARTEK_AKFURNITURE_D2_SH_FRA
 10
0.988134
 20
-0.0495
 30
0
  0
VERTEX
  8
72_ARTEK_AKFURNITURE_D2_SH_FRA
 10
0.98806
 20
-0.049342
 30
0
  0
VERTEX
  8
72_ARTEK_AKFURNITURE_D2_SH_FRA
 10
0.988015
 20
-0.0491736
 30
0
  0
VERTEX
  8
72_ARTEK_AKFURNITURE_D2_SH_FRA
 10
0.988
 20
-0.049
 30
0
  0
VERTEX
  8
72_ARTEK_AKFURNITURE_D2_SH_FRA
 10
0.988
 20
-0.001
 30
0
  0
VERTEX
  8
72_ARTEK_AKFURNITURE_D2_SH_FRA
 10
0.988
 20
-0.001
 30
0
  0
VERTEX
  8
72_ARTEK_AKFURNITURE_D2_SH_FRA
 10
0.988015
 20
-0.000826352
 30
0
  0
VERTEX
  8
72_ARTEK_AKFURNITURE_D2_SH_FRA
 10
0.98806
 20
-0.00065798
 30
0
  0
VERTEX
  8
72_ARTEK_AKFURNITURE_D2_SH_FRA
 10
0.988134
 20
-0.0005
 30
0
  0
VERTEX
  8
72_ARTEK_AKFURNITURE_D2_SH_FRA
 10
0.988234
 20
-0.000357212
 30
0
  0
VERTEX
  8
72_ARTEK_AKFURNITURE_D2_SH_FRA
 10
0.988357
 20
-0.000233956
 30
0
  0
VERTEX
  8
72_ARTEK_AKFURNITURE_D2_SH_FRA
 10
0.9885
 20
-0.000133975
 30
0
  0
VERTEX
  8
72_ARTEK_AKFURNITURE_D2_SH_FRA
 10
0.988658
 20
-6.03074e-005
 30
0
  0
VERTEX
  8
72_ARTEK_AKFURNITURE_D2_SH_FRA
 10
0.988826
 20
-1.51922e-005
 30
0
  0
VERTEX
  8
72_ARTEK_AKFURNITURE_D2_SH_FRA
 10
0.989
 20
5.75982e-020
 30
0
  0
VERTEX
  8
72_ARTEK_AKFURNITURE_D2_SH_FRA
 10
1.011
 20
-0
 30
0
  0
VERTEX
  8
72_ARTEK_AKFURNITURE_D2_SH_FRA
 10
1.011
 20
-0
 30
0
  0
VERTEX
  8
72_ARTEK_AKFURNITURE_D2_SH_FRA
 10
1.0112
 20
-1.92147e-005
 30
0
  0
VERTEX
  8
72_ARTEK_AKFURNITURE_D2_SH_FRA
 10
1.01138
 20
-7.61205e-005
 30
0
  0
VERTEX
  8
72_ARTEK_AKFURNITURE_D2_SH_FRA
 10
1.01156
 20
-0.00016853
 30
0
  0
VERTEX
  8
72_ARTEK_AKFURNITURE_D2_SH_FRA
 10
1.01171
 20
-0.000292893
 30
0
  0
VERTEX
  8
72_ARTEK_AKFURNITURE_D2_SH_FRA
 10
1.01183
 20
-0.00044443
 30
0
  0
VERTEX
  8
72_ARTEK_AKFURNITURE_D2_SH_FRA
 10
1.01192
 20
-0.000617317
 30
0
  0
VERTEX
  8
72_ARTEK_AKFURNITURE_D2_SH_FRA
 10
1.01198
 20
-0.00080491
 30
0
  0
VERTEX
  8
72_ARTEK_AKFURNITURE_D2_SH_FRA
 10
1.012
 20
-0.001
 30
0
  0
SEQEND
  0
POLYLINE
  8
72_ARTEK_AKFURNITURE_D2_SH_FRA
 66
     1
 70
     0
 10
0.0
 20
0.0
 30
0.0
  0
VERTEX
  8
72_ARTEK_AKFURNITURE_D2_SH_FRA
 10
1.912
 20
-0.001
 30
0
  0
VERTEX
  8
72_ARTEK_AKFURNITURE_D2_SH_FRA
 10
1.912
 20
-0.049
 30
0
  0
VERTEX
  8
72_ARTEK_AKFURNITURE_D2_SH_FRA
 10
1.912
 20
-0.049
 30
0
  0
VERTEX
  8
72_ARTEK_AKFURNITURE_D2_SH_FRA
 10
1.91198
 20
-0.0491951
 30
0
  0
VERTEX
  8
72_ARTEK_AKFURNITURE_D2_SH_FRA
 10
1.91192
 20
-0.0493827
 30
0
  0
VERTEX
  8
72_ARTEK_AKFURNITURE_D2_SH_FRA
 10
1.91183
 20
-0.0495556
 30
0
  0
VERTEX
  8
72_ARTEK_AKFURNITURE_D2_SH_FRA
 10
1.91171
 20
-0.0497071
 30
0
  0
VERTEX
  8
72_ARTEK_AKFURNITURE_D2_SH_FRA
 10
1.91156
 20
-0.0498315
 30
0
  0
VERTEX
  8
72_ARTEK_AKFURNITURE_D2_SH_FRA
 10
1.91138
 20
-0.0499239
 30
0
  0
VERTEX
  8
72_ARTEK_AKFURNITURE_D2_SH_FRA
 10
1.9112
 20
-0.0499808
 30
0
  0
VERTEX
  8
72_ARTEK_AKFURNITURE_D2_SH_FRA
 10
1.911
 20
-0.05
 30
0
  0
VERTEX
  8
72_ARTEK_AKFURNITURE_D2_SH_FRA
 10
1.889
 20
-0.05
 30
0
  0
VERTEX
  8
72_ARTEK_AKFURNITURE_D2_SH_FRA
 10
1.889
 20
-0.05
 30
0
  0
VERTEX
  8
72_ARTEK_AKFURNITURE_D2_SH_FRA
 10
1.88883
 20
-0.0499848
 30
0
  0
VERTEX
  8
72_ARTEK_AKFURNITURE_D2_SH_FRA
 10
1.88866
 20
-0.0499397
 30
0
  0
VERTEX
  8
72_ARTEK_AKFURNITURE_D2_SH_FRA
 10
1.8885
 20
-0.049866
 30
0
  0
VERTEX
  8
72_ARTEK_AKFURNITURE_D2_SH_FRA
 10
1.88836
 20
-0.049766
 30
0
  0
VERTEX
  8
72_ARTEK_AKFURNITURE_D2_SH_FRA
 10
1.88823
 20
-0.0496428
 30
0
  0
VERTEX
  8
72_ARTEK_AKFURNITURE_D2_SH_FRA
 10
1.88813
 20
-0.0495
 30
0
  0
VERTEX
  8
72_ARTEK_AKFURNITURE_D2_SH_FRA
 10
1.88806
 20
-0.049342
 30
0
  0
VERTEX
  8
72_ARTEK_AKFURNITURE_D2_SH_FRA
 10
1.88802
 20
-0.0491736
 30
0
  0
VERTEX
  8
72_ARTEK_AKFURNITURE_D2_SH_FRA
 10
1.888
 20
-0.049
 30
0
  0
VERTEX
  8
72_ARTEK_AKFURNITURE_D2_SH_FRA
 10
1.888
 20
-0.001
 30
0
  0
VERTEX
  8
72_ARTEK_AKFURNITURE_D2_SH_FRA
 10
1.888
 20
-0.001
 30
0
  0
VERTEX
  8
72_ARTEK_AKFURNITURE_D2_SH_FRA
 10
1.88802
 20
-0.000826352
 30
0
  0
VERTEX
  8
72_ARTEK_AKFURNITURE_D2_SH_FRA
 10
1.88806
 20
-0.00065798
 30
0
  0
VERTEX
  8
72_ARTEK_AKFURNITURE_D2_SH_FRA
 10
1.88813
 20
-0.0005
 30
0
  0
VERTEX
  8
72_ARTEK_AKFURNITURE_D2_SH_FRA
 10
1.88823
 20
-0.000357212
 30
0
  0
VERTEX
  8
72_ARTEK_AKFURNITURE_D2_SH_FRA
 10
1.88836
 20
-0.000233956
 30
0
  0
VERTEX
  8
72_ARTEK_AKFURNITURE_D2_SH_FRA
 10
1.8885
 20
-0.000133975
 30
0
  0
VERTEX
  8
72_ARTEK_AKFURNITURE_D2_SH_FRA
 10
1.88866
 20
-6.03074e-005
 30
0
  0
VERTEX
  8
72_ARTEK_AKFURNITURE_D2_SH_FRA
 10
1.88883
 20
-1.51922e-005
 30
0
  0
VERTEX
  8
72_ARTEK_AKFURNITURE_D2_SH_FRA
 10
1.889
 20
-4.37281e-019
 30
0
  0
VERTEX
  8
72_ARTEK_AKFURNITURE_D2_SH_FRA
 10
1.911
 20
-0
 30
0
  0
VERTEX
  8
72_ARTEK_AKFURNITURE_D2_SH_FRA
 10
1.911
 20
-0
 30
0
  0
VERTEX
  8
72_ARTEK_AKFURNITURE_D2_SH_FRA
 10
1.9112
 20
-1.92147e-005
 30
0
  0
VERTEX
  8
72_ARTEK_AKFURNITURE_D2_SH_FRA
 10
1.91138
 20
-7.61205e-005
 30
0
  0
VERTEX
  8
72_ARTEK_AKFURNITURE_D2_SH_FRA
 10
1.91156
 20
-0.00016853
 30
0
  0
VERTEX
  8
72_ARTEK_AKFURNITURE_D2_SH_FRA
 10
1.91171
 20
-0.000292893
 30
0
  0
VERTEX
  8
72_ARTEK_AKFURNITURE_D2_SH_FRA
 10
1.91183
 20
-0.00044443
 30
0
  0
VERTEX
  8
72_ARTEK_AKFURNITURE_D2_SH_FRA
 10
1.91192
 20
-0.000617317
 30
0
  0
VERTEX
  8
72_ARTEK_AKFURNITURE_D2_SH_FRA
 10
1.91198
 20
-0.00080491
 30
0
  0
VERTEX
  8
72_ARTEK_AKFURNITURE_D2_SH_FRA
 10
1.912
 20
-0.001
 30
0
  0
SEQEND
  0
POLYLINE
  8
72_ARTEK_AKFURNITURE_D2SNAP
 66
     1
 70
     0
 10
0.0
 20
0.0
 30
0.0
  0
VERTEX
  8
72_ARTEK_AKFURNITURE_D2SNAP
 10
0.0125
 20
-0
 30
0
  0
VERTEX
  8
72_ARTEK_AKFURNITURE_D2SNAP
 10
0.0122598
 20
0.00243863
 30
0
  0
VERTEX
  8
72_ARTEK_AKFURNITURE_D2SNAP
 10
0.0115485
 20
0.00478354
 30
0
  0
VERTEX
  8
72_ARTEK_AKFURNITURE_D2SNAP
 10
0.0103934
 20
0.00694463
 30
0
  0
VERTEX
  8
72_ARTEK_AKFURNITURE_D2SNAP
 10
0.00883883
 20
0.00883883
 30
0
  0
VERTEX
  8
72_ARTEK_AKFURNITURE_D2SNAP
 10
0.00694463
 20
0.0103934
 30
0
  0
VERTEX
  8
72_ARTEK_AKFURNITURE_D2SNAP
 10
0.00478354
 20
0.0115485
 30
0
  0
VERTEX
  8
72_ARTEK_AKFURNITURE_D2SNAP
 10
0.00243863
 20
0.0122598
 30
0
  0
VERTEX
  8
72_ARTEK_AKFURNITURE_D2SNAP
 10
1.57667e-018
 20
0.0125
 30
0
  0
VERTEX
  8
72_ARTEK_AKFURNITURE_D2SNAP
 10
-0.00243863
 20
0.0122598
 30
0
  0
VERTEX
  8
72_ARTEK_AKFURNITURE_D2SNAP
 10
-0.00478354
 20
0.0115485
 30
0
  0
VERTEX
  8
72_ARTEK_AKFURNITURE_D2SNAP
 10
-0.00694463
 20
0.0103934
 30
0
  0
VERTEX
  8
72_ARTEK_AKFURNITURE_D2SNAP
 10
-0.00883883
 20
0.00883883
 30
0
  0
VERTEX
  8
72_ARTEK_AKFURNITURE_D2SNAP
 10
-0.0103934
 20
0.00694463
 30
0
  0
VERTEX
  8
72_ARTEK_AKFURNITURE_D2SNAP
 10
-0.0115485
 20
0.00478354
 30
0
  0
VERTEX
  8
72_ARTEK_AKFURNITURE_D2SNAP
 10
-0.0122598
 20
0.00243863
 30
0
  0
VERTEX
  8
72_ARTEK_AKFURNITURE_D2SNAP
 10
-0.0125
 20
3.15316e-018
 30
0
  0
VERTEX
  8
72_ARTEK_AKFURNITURE_D2SNAP
 10
-0.0122598
 20
-0.00243863
 30
0
  0
VERTEX
  8
72_ARTEK_AKFURNITURE_D2SNAP
 10
-0.0115485
 20
-0.00478354
 30
0
  0
VERTEX
  8
72_ARTEK_AKFURNITURE_D2SNAP
 10
-0.0103934
 20
-0.00694463
 30
0
  0
VERTEX
  8
72_ARTEK_AKFURNITURE_D2SNAP
 10
-0.00883883
 20
-0.00883883
 30
0
  0
VERTEX
  8
72_ARTEK_AKFURNITURE_D2SNAP
 10
-0.00694463
 20
-0.0103934
 30
0
  0
VERTEX
  8
72_ARTEK_AKFURNITURE_D2SNAP
 10
-0.00478354
 20
-0.0115485
 30
0
  0
VERTEX
  8
72_ARTEK_AKFURNITURE_D2SNAP
 10
-0.00243863
 20
-0.0122598
 30
0
  0
VERTEX
  8
72_ARTEK_AKFURNITURE_D2SNAP
 10
-4.73102e-018
 20
-0.0125
 30
0
  0
VERTEX
  8
72_ARTEK_AKFURNITURE_D2SNAP
 10
0.00243863
 20
-0.0122598
 30
0
  0
VERTEX
  8
72_ARTEK_AKFURNITURE_D2SNAP
 10
0.00478354
 20
-0.0115485
 30
0
  0
VERTEX
  8
72_ARTEK_AKFURNITURE_D2SNAP
 10
0.00694463
 20
-0.0103934
 30
0
  0
VERTEX
  8
72_ARTEK_AKFURNITURE_D2SNAP
 10
0.00883883
 20
-0.00883883
 30
0
  0
VERTEX
  8
72_ARTEK_AKFURNITURE_D2SNAP
 10
0.0103934
 20
-0.00694463
 30
0
  0
VERTEX
  8
72_ARTEK_AKFURNITURE_D2SNAP
 10
0.0115485
 20
-0.00478354
 30
0
  0
VERTEX
  8
72_ARTEK_AKFURNITURE_D2SNAP
 10
0.0122598
 20
-0.00243863
 30
0
  0
VERTEX
  8
72_ARTEK_AKFURNITURE_D2SNAP
 10
0.0125
 20
-0
 30
0
  0
SEQEND
  0
POLYLINE
  8
72_ARTEK_AKFURNITURE_D2SNAP
 66
     1
 70
     0
 10
0.0
 20
0.0
 30
0.0
  0
VERTEX
  8
72_ARTEK_AKFURNITURE_D2SNAP
 10
-0.0176777
 20
-0.0176777
 30
0
  0
VERTEX
  8
72_ARTEK_AKFURNITURE_D2SNAP
 10
0.0176777
 20
0.0176777
 30
0
  0
SEQEND
  0
POLYLINE
  8
72_ARTEK_AKFURNITURE_D2SNAP
 66
     1
 70
     0
 10
0.0
 20
0.0
 30
0.0
  0
VERTEX
  8
72_ARTEK_AKFURNITURE_D2SNAP
 10
-0.0176777
 20
0.0176777
 30
0
  0
VERTEX
  8
72_ARTEK_AKFURNITURE_D2SNAP
 10
0.0176777
 20
-0.0176777
 30
0
  0
SEQEND
  0
ENDBLK
  8
0
  0
ENDSEC
  0
SECTION
  2
ENTITIES
  0
INSERT
  8
72OFGO2D01_GRAFIK
  2
OB2D_28503301_000000
 10
0.0
 20
0.0
 30
0.0
  0
ENDSEC
  0
EOF
