  0
SECTION
  2
HEADER
  9
$ACADVER
  1
AC1009
  9
$INSBASE
 10
0.0
 20
0.0
 30
0.0
  9
$EXTMIN
 10
-5.03
 20
-5.03
 30
-1.03
  9
$EXTMAX
 10
5.03
 20
5
 30
5.03
  0
ENDSEC
  0
SECTION
  2
TABLES
  0
TABLE
  2
LTYPE
 70
     2
  0
LTYPE
  2
CONTINUOUS
 70
    64
  3
________
 72
    65
 73
     0
 40
0.0
  0
LTYPE
  2
DASHED
 70
     0
  3
__ __ __
 72
    65
 73
     2
 40
0.75
 49
0.5
 49
-0.25
  0
LTYPE
  2
DOT
 70
     0
  3
. . . .
 72
    65
 73
     2
 40
0.25
 49
0.0
 49
-0.25
  0
LTYPE
  2
DASHDOT
 70
     0
  3
_ . _ .
 72
    65
 73
     4
 40
1.0
 49
0.5
 49
-0.25
 49
-0.0
 49
-0.25
  0
LTYPE
  2
DASHDOUBLEDOT
 70
     0
  3
__..__..
 72
    65
 73
     6
 40
1.25
 49
0.5
 49
-0.25
 49
-0.0
 49
-0.25
 49
-0.0
 49
-0.25
  0
LTYPE
  2
DASHTRIPLEDOT
 70
     0
  3
__...__...__
 72
    65
 73
     8
 40
1.5
 49
0.5
 49
-0.25
 49
-0.0
 49
-0.25
 49
-0.0
 49
-0.25
 49
-0.0
 49
-0.25
  0
ENDTAB
  0
TABLE
  2
LAYER
 70
    14
  0
LAYER
  2
0
 70
    64
 62
     7
  6
CONTINUOUS
  0
LAYER
  2
CEILING
 70
    64
 62
     7
  6
CONTINUOUS
  0
LAYER
  2
FLOORBLOCK
 70
    64
 62
     7
  6
CONTINUOUS
  0
LAYER
  2
FLOORHATCHING
 70
    64
 62
     7
  6
CONTINUOUS
  0
LAYER
  2
SNAP
 70
    64
 62
     7
  6
CONTINUOUS
  0
LAYER
  2
ATTACHPOINT
 70
    64
 62
     7
  6
CONTINUOUS
  0
LAYER
  2
72_ARTEK_AKFURNITURE_D2_CH_FRA
 70
    64
 62
18
  6
CONTINUOUS
  0
LAYER
  2
72_ARTEK_AKFURNITURE_D2SNAP
 70
    64
 62
1
  6
CONTINUOUS
  0
LAYER
  2
72_ARTEK_AKFURNITURE_D2_CH_SEA
 70
    64
 62
18
  6
CONTINUOUS
  0
LAYER
  2
72_ARTEK_AKFURNITURE_D2_CH_ARM
 70
    64
 62
18
  6
CONTINUOUS
  0
LAYER
  2
72_ARTEK_AKFURNITURE_D2_CH_BAC
 70
    64
 62
18
  6
CONTINUOUS
  0
LAYER
  2
72_ARTEK_AKFURNITURE_D2_CH_FOO
 70
    64
 62
18
  6
CONTINUOUS
  0
LAYER
  2
72_ARTEK_AKFURNITURE_D2_CH_000
 70
    64
 62
8
  6
CONTINUOUS
  0
LAYER
  2
72OFGO2D01_GRAFIK
 70
    64
 62
     1
  6
CONTINUOUS
  0
ENDTAB
  0
TABLE
  2
STYLE
 70
     1
  0
STYLE
  2
STANDARD
 70
     0
 40
0.0
 41
1.0
 50
0.0
 71
     0
 42
0.2
  3
txt
  4

  0
ENDTAB
  0
TABLE
  2
APPID
 70
    64
  0
APPID
  2
ACAD
 70
    64
  0
APPID
  2
OFML_10
 70
    64
  0
ENDTAB
  0
ENDSEC
  0
SECTION
  2
BLOCKS
  0
BLOCK
  8
0
  2
OB2D__000000
 70
    64
 10
0.0
 20
0.0
 30
0.0
  3
OB2D__000000
  0
POLYLINE
  8
72_ARTEK_AKFURNITURE_D2_CH_ARM
 66
     1
 70
     0
 10
0.0
 20
0.0
 30
0.0
  0
VERTEX
  8
72_ARTEK_AKFURNITURE_D2_CH_ARM
 10
0.58048
 20
0.182864
 30
0
  0
VERTEX
  8
72_ARTEK_AKFURNITURE_D2_CH_ARM
 10
0.580384
 20
0.182804
 30
0
  0
VERTEX
  8
72_ARTEK_AKFURNITURE_D2_CH_ARM
 10
0.579756
 20
0.182435
 30
0
  0
VERTEX
  8
72_ARTEK_AKFURNITURE_D2_CH_ARM
 10
0.579124
 20
0.182087
 30
0
  0
VERTEX
  8
72_ARTEK_AKFURNITURE_D2_CH_ARM
 10
0.578487
 20
0.181757
 30
0
  0
VERTEX
  8
72_ARTEK_AKFURNITURE_D2_CH_ARM
 10
0.577845
 20
0.181444
 30
0
  0
VERTEX
  8
72_ARTEK_AKFURNITURE_D2_CH_ARM
 10
0.577197
 20
0.181148
 30
0
  0
VERTEX
  8
72_ARTEK_AKFURNITURE_D2_CH_ARM
 10
0.576543
 20
0.180868
 30
0
  0
VERTEX
  8
72_ARTEK_AKFURNITURE_D2_CH_ARM
 10
0.575885
 20
0.180603
 30
0
  0
VERTEX
  8
72_ARTEK_AKFURNITURE_D2_CH_ARM
 10
0.57522
 20
0.180352
 30
0
  0
VERTEX
  8
72_ARTEK_AKFURNITURE_D2_CH_ARM
 10
0.574549
 20
0.180113
 30
0
  0
VERTEX
  8
72_ARTEK_AKFURNITURE_D2_CH_ARM
 10
0.573872
 20
0.179886
 30
0
  0
VERTEX
  8
72_ARTEK_AKFURNITURE_D2_CH_ARM
 10
0.573189
 20
0.17967
 30
0
  0
VERTEX
  8
72_ARTEK_AKFURNITURE_D2_CH_ARM
 10
0.5725
 20
0.179464
 30
0
  0
VERTEX
  8
72_ARTEK_AKFURNITURE_D2_CH_ARM
 10
0.571803
 20
0.179266
 30
0
  0
VERTEX
  8
72_ARTEK_AKFURNITURE_D2_CH_ARM
 10
0.571101
 20
0.179077
 30
0
  0
VERTEX
  8
72_ARTEK_AKFURNITURE_D2_CH_ARM
 10
0.570392
 20
0.178895
 30
0
  0
VERTEX
  8
72_ARTEK_AKFURNITURE_D2_CH_ARM
 10
0.569675
 20
0.178718
 30
0
  0
VERTEX
  8
72_ARTEK_AKFURNITURE_D2_CH_ARM
 10
0.568952
 20
0.178547
 30
0
  0
VERTEX
  8
72_ARTEK_AKFURNITURE_D2_CH_ARM
 10
0.568777
 20
0.178547
 30
0
  0
VERTEX
  8
72_ARTEK_AKFURNITURE_D2_CH_ARM
 10
0.567298
 20
0.178142
 30
0
  0
VERTEX
  8
72_ARTEK_AKFURNITURE_D2_CH_ARM
 10
0.564618
 20
0.177502
 30
0
  0
VERTEX
  8
72_ARTEK_AKFURNITURE_D2_CH_ARM
 10
0.561902
 20
0.176916
 30
0
  0
VERTEX
  8
72_ARTEK_AKFURNITURE_D2_CH_ARM
 10
0.559165
 20
0.176359
 30
0
  0
VERTEX
  8
72_ARTEK_AKFURNITURE_D2_CH_ARM
 10
0.556424
 20
0.175806
 30
0
  0
VERTEX
  8
72_ARTEK_AKFURNITURE_D2_CH_ARM
 10
0.553692
 20
0.175231
 30
0
  0
VERTEX
  8
72_ARTEK_AKFURNITURE_D2_CH_ARM
 10
0.550984
 20
0.174609
 30
0
  0
VERTEX
  8
72_ARTEK_AKFURNITURE_D2_CH_ARM
 10
0.548316
 20
0.173915
 30
0
  0
VERTEX
  8
72_ARTEK_AKFURNITURE_D2_CH_ARM
 10
0.545703
 20
0.173124
 30
0
  0
VERTEX
  8
72_ARTEK_AKFURNITURE_D2_CH_ARM
 10
0.543159
 20
0.17221
 30
0
  0
VERTEX
  8
72_ARTEK_AKFURNITURE_D2_CH_ARM
 10
0.5407
 20
0.171148
 30
0
  0
VERTEX
  8
72_ARTEK_AKFURNITURE_D2_CH_ARM
 10
0.53886
 20
0.170202
 30
0
  0
VERTEX
  8
72_ARTEK_AKFURNITURE_D2_CH_ARM
 10
0.537114
 20
0.169161
 30
0
  0
VERTEX
  8
72_ARTEK_AKFURNITURE_D2_CH_ARM
 10
0.535458
 20
0.168031
 30
0
  0
VERTEX
  8
72_ARTEK_AKFURNITURE_D2_CH_ARM
 10
0.533885
 20
0.166817
 30
0
  0
VERTEX
  8
72_ARTEK_AKFURNITURE_D2_CH_ARM
 10
0.532392
 20
0.165527
 30
0
  0
VERTEX
  8
72_ARTEK_AKFURNITURE_D2_CH_ARM
 10
0.530971
 20
0.164165
 30
0
  0
VERTEX
  8
72_ARTEK_AKFURNITURE_D2_CH_ARM
 10
0.529618
 20
0.162738
 30
0
  0
VERTEX
  8
72_ARTEK_AKFURNITURE_D2_CH_ARM
 10
0.528327
 20
0.161251
 30
0
  0
VERTEX
  8
72_ARTEK_AKFURNITURE_D2_CH_ARM
 10
0.527092
 20
0.15971
 30
0
  0
VERTEX
  8
72_ARTEK_AKFURNITURE_D2_CH_ARM
 10
0.526501
 20
0.158916
 30
0
  0
VERTEX
  8
72_ARTEK_AKFURNITURE_D2_CH_ARM
 10
0.526382
 20
0.157708
 30
0
  0
VERTEX
  8
72_ARTEK_AKFURNITURE_D2_CH_ARM
 10
0.526352
 20
0.157278
 30
0
  0
VERTEX
  8
72_ARTEK_AKFURNITURE_D2_CH_ARM
 10
0.526345
 20
0.156889
 30
0
  0
VERTEX
  8
72_ARTEK_AKFURNITURE_D2_CH_ARM
 10
0.526358
 20
0.156538
 30
0
  0
VERTEX
  8
72_ARTEK_AKFURNITURE_D2_CH_ARM
 10
0.526391
 20
0.156221
 30
0
  0
VERTEX
  8
72_ARTEK_AKFURNITURE_D2_CH_ARM
 10
0.526444
 20
0.155932
 30
0
  0
VERTEX
  8
72_ARTEK_AKFURNITURE_D2_CH_ARM
 10
0.526517
 20
0.155669
 30
0
  0
VERTEX
  8
72_ARTEK_AKFURNITURE_D2_CH_ARM
 10
0.526607
 20
0.155427
 30
0
  0
VERTEX
  8
72_ARTEK_AKFURNITURE_D2_CH_ARM
 10
0.526715
 20
0.155201
 30
0
  0
VERTEX
  8
72_ARTEK_AKFURNITURE_D2_CH_ARM
 10
0.52684
 20
0.154988
 30
0
  0
VERTEX
  8
72_ARTEK_AKFURNITURE_D2_CH_ARM
 10
0.526981
 20
0.154783
 30
0
  0
VERTEX
  8
72_ARTEK_AKFURNITURE_D2_CH_ARM
 10
0.527138
 20
0.154583
 30
0
  0
VERTEX
  8
72_ARTEK_AKFURNITURE_D2_CH_ARM
 10
0.52731
 20
0.154383
 30
0
  0
VERTEX
  8
72_ARTEK_AKFURNITURE_D2_CH_ARM
 10
0.527496
 20
0.15418
 30
0
  0
VERTEX
  8
72_ARTEK_AKFURNITURE_D2_CH_ARM
 10
0.527696
 20
0.153968
 30
0
  0
VERTEX
  8
72_ARTEK_AKFURNITURE_D2_CH_ARM
 10
0.527908
 20
0.153744
 30
0
  0
VERTEX
  8
72_ARTEK_AKFURNITURE_D2_CH_ARM
 10
0.528132
 20
0.153503
 30
0
  0
VERTEX
  8
72_ARTEK_AKFURNITURE_D2_CH_ARM
 10
0.528368
 20
0.153243
 30
0
  0
VERTEX
  8
72_ARTEK_AKFURNITURE_D2_CH_ARM
 10
0.528615
 20
0.152957
 30
0
  0
VERTEX
  8
72_ARTEK_AKFURNITURE_D2_CH_ARM
 10
0.528872
 20
0.152643
 30
0
  0
VERTEX
  8
72_ARTEK_AKFURNITURE_D2_CH_ARM
 10
0.529138
 20
0.152296
 30
0
  0
VERTEX
  8
72_ARTEK_AKFURNITURE_D2_CH_ARM
 10
0.529292
 20
0.152085
 30
0
  0
VERTEX
  8
72_ARTEK_AKFURNITURE_D2_CH_ARM
 10
0.529446
 20
0.15187
 30
0
  0
VERTEX
  8
72_ARTEK_AKFURNITURE_D2_CH_ARM
 10
0.5296
 20
0.151651
 30
0
  0
VERTEX
  8
72_ARTEK_AKFURNITURE_D2_CH_ARM
 10
0.529753
 20
0.151427
 30
0
  0
VERTEX
  8
72_ARTEK_AKFURNITURE_D2_CH_ARM
 10
0.529905
 20
0.1512
 30
0
  0
VERTEX
  8
72_ARTEK_AKFURNITURE_D2_CH_ARM
 10
0.530055
 20
0.150969
 30
0
  0
VERTEX
  8
72_ARTEK_AKFURNITURE_D2_CH_ARM
 10
0.530203
 20
0.150736
 30
0
  0
VERTEX
  8
72_ARTEK_AKFURNITURE_D2_CH_ARM
 10
0.53035
 20
0.1505
 30
0
  0
VERTEX
  8
72_ARTEK_AKFURNITURE_D2_CH_ARM
 10
0.530495
 20
0.150262
 30
0
  0
VERTEX
  8
72_ARTEK_AKFURNITURE_D2_CH_ARM
 10
0.530636
 20
0.150021
 30
0
  0
VERTEX
  8
72_ARTEK_AKFURNITURE_D2_CH_ARM
 10
0.530775
 20
0.149779
 30
0
  0
VERTEX
  8
72_ARTEK_AKFURNITURE_D2_CH_ARM
 10
0.530911
 20
0.149536
 30
0
  0
VERTEX
  8
72_ARTEK_AKFURNITURE_D2_CH_ARM
 10
0.531043
 20
0.149292
 30
0
  0
VERTEX
  8
72_ARTEK_AKFURNITURE_D2_CH_ARM
 10
0.531171
 20
0.149048
 30
0
  0
VERTEX
  8
72_ARTEK_AKFURNITURE_D2_CH_ARM
 10
0.531295
 20
0.148803
 30
0
  0
VERTEX
  8
72_ARTEK_AKFURNITURE_D2_CH_ARM
 10
0.531415
 20
0.148559
 30
0
  0
VERTEX
  8
72_ARTEK_AKFURNITURE_D2_CH_ARM
 10
0.53153
 20
0.148315
 30
0
  0
VERTEX
  8
72_ARTEK_AKFURNITURE_D2_CH_ARM
 10
0.53164
 20
0.148072
 30
0
  0
VERTEX
  8
72_ARTEK_AKFURNITURE_D2_CH_ARM
 10
0.531745
 20
0.14783
 30
0
  0
VERTEX
  8
72_ARTEK_AKFURNITURE_D2_CH_ARM
 10
0.531844
 20
0.147589
 30
0
  0
VERTEX
  8
72_ARTEK_AKFURNITURE_D2_CH_ARM
 10
0.532269
 20
0.146435
 30
0
  0
VERTEX
  8
72_ARTEK_AKFURNITURE_D2_CH_ARM
 10
0.532661
 20
0.145186
 30
0
  0
VERTEX
  8
72_ARTEK_AKFURNITURE_D2_CH_ARM
 10
0.533021
 20
0.143854
 30
0
  0
VERTEX
  8
72_ARTEK_AKFURNITURE_D2_CH_ARM
 10
0.53335
 20
0.142452
 30
0
  0
VERTEX
  8
72_ARTEK_AKFURNITURE_D2_CH_ARM
 10
0.533651
 20
0.140993
 30
0
  0
VERTEX
  8
72_ARTEK_AKFURNITURE_D2_CH_ARM
 10
0.533926
 20
0.139488
 30
0
  0
VERTEX
  8
72_ARTEK_AKFURNITURE_D2_CH_ARM
 10
0.534176
 20
0.137951
 30
0
  0
VERTEX
  8
72_ARTEK_AKFURNITURE_D2_CH_ARM
 10
0.534403
 20
0.136392
 30
0
  0
VERTEX
  8
72_ARTEK_AKFURNITURE_D2_CH_ARM
 10
0.534609
 20
0.134826
 30
0
  0
VERTEX
  8
72_ARTEK_AKFURNITURE_D2_CH_ARM
 10
0.534797
 20
0.133264
 30
0
  0
VERTEX
  8
72_ARTEK_AKFURNITURE_D2_CH_ARM
 10
0.534967
 20
0.131719
 30
0
  0
VERTEX
  8
72_ARTEK_AKFURNITURE_D2_CH_ARM
 10
0.535122
 20
0.130203
 30
0
  0
VERTEX
  8
72_ARTEK_AKFURNITURE_D2_CH_ARM
 10
0.535264
 20
0.128728
 30
0
  0
VERTEX
  8
72_ARTEK_AKFURNITURE_D2_CH_ARM
 10
0.535394
 20
0.127308
 30
0
  0
VERTEX
  8
72_ARTEK_AKFURNITURE_D2_CH_ARM
 10
0.535514
 20
0.125953
 30
0
  0
VERTEX
  8
72_ARTEK_AKFURNITURE_D2_CH_ARM
 10
0.535626
 20
0.124677
 30
0
  0
VERTEX
  8
72_ARTEK_AKFURNITURE_D2_CH_ARM
 10
0.535733
 20
0.123492
 30
0
  0
VERTEX
  8
72_ARTEK_AKFURNITURE_D2_CH_ARM
 10
0.535835
 20
0.122411
 30
0
  0
VERTEX
  8
72_ARTEK_AKFURNITURE_D2_CH_ARM
 10
0.535935
 20
0.121445
 30
0
  0
VERTEX
  8
72_ARTEK_AKFURNITURE_D2_CH_ARM
 10
0.536035
 20
0.120608
 30
0
  0
VERTEX
  8
72_ARTEK_AKFURNITURE_D2_CH_ARM
 10
0.558241
 20
-0.0500057
 30
0
  0
VERTEX
  8
72_ARTEK_AKFURNITURE_D2_CH_ARM
 10
0.558366
 20
-0.0510755
 30
0
  0
VERTEX
  8
72_ARTEK_AKFURNITURE_D2_CH_ARM
 10
0.558484
 20
-0.0522637
 30
0
  0
VERTEX
  8
72_ARTEK_AKFURNITURE_D2_CH_ARM
 10
0.558597
 20
-0.0535581
 30
0
  0
VERTEX
  8
72_ARTEK_AKFURNITURE_D2_CH_ARM
 10
0.558711
 20
-0.0549465
 30
0
  0
VERTEX
  8
72_ARTEK_AKFURNITURE_D2_CH_ARM
 10
0.558828
 20
-0.0564169
 30
0
  0
VERTEX
  8
72_ARTEK_AKFURNITURE_D2_CH_ARM
 10
0.558954
 20
-0.0579568
 30
0
  0
VERTEX
  8
72_ARTEK_AKFURNITURE_D2_CH_ARM
 10
0.559092
 20
-0.0595542
 30
0
  0
VERTEX
  8
72_ARTEK_AKFURNITURE_D2_CH_ARM
 10
0.559246
 20
-0.0611967
 30
0
  0
VERTEX
  8
72_ARTEK_AKFURNITURE_D2_CH_ARM
 10
0.55942
 20
-0.0628722
 30
0
  0
VERTEX
  8
72_ARTEK_AKFURNITURE_D2_CH_ARM
 10
0.559618
 20
-0.0645686
 30
0
  0
VERTEX
  8
72_ARTEK_AKFURNITURE_D2_CH_ARM
 10
0.559845
 20
-0.0662734
 30
0
  0
VERTEX
  8
72_ARTEK_AKFURNITURE_D2_CH_ARM
 10
0.560103
 20
-0.0679746
 30
0
  0
VERTEX
  8
72_ARTEK_AKFURNITURE_D2_CH_ARM
 10
0.560398
 20
-0.0696601
 30
0
  0
VERTEX
  8
72_ARTEK_AKFURNITURE_D2_CH_ARM
 10
0.560734
 20
-0.0713174
 30
0
  0
VERTEX
  8
72_ARTEK_AKFURNITURE_D2_CH_ARM
 10
0.561114
 20
-0.0729345
 30
0
  0
VERTEX
  8
72_ARTEK_AKFURNITURE_D2_CH_ARM
 10
0.561542
 20
-0.074499
 30
0
  0
VERTEX
  8
72_ARTEK_AKFURNITURE_D2_CH_ARM
 10
0.562023
 20
-0.0759989
 30
0
  0
VERTEX
  8
72_ARTEK_AKFURNITURE_D2_CH_ARM
 10
0.56256
 20
-0.0774219
 30
0
  0
VERTEX
  8
72_ARTEK_AKFURNITURE_D2_CH_ARM
 10
0.563158
 20
-0.0787557
 30
0
  0
VERTEX
  8
72_ARTEK_AKFURNITURE_D2_CH_ARM
 10
0.56382
 20
-0.0799883
 30
0
  0
VERTEX
  8
72_ARTEK_AKFURNITURE_D2_CH_ARM
 10
0.564679
 20
-0.0812849
 30
0
  0
VERTEX
  8
72_ARTEK_AKFURNITURE_D2_CH_ARM
 10
0.565638
 20
-0.0824516
 30
0
  0
VERTEX
  8
72_ARTEK_AKFURNITURE_D2_CH_ARM
 10
0.566686
 20
-0.083487
 30
0
  0
VERTEX
  8
72_ARTEK_AKFURNITURE_D2_CH_ARM
 10
0.567811
 20
-0.0843897
 30
0
  0
VERTEX
  8
72_ARTEK_AKFURNITURE_D2_CH_ARM
 10
0.569001
 20
-0.0851583
 30
0
  0
VERTEX
  8
72_ARTEK_AKFURNITURE_D2_CH_ARM
 10
0.570246
 20
-0.0857912
 30
0
  0
VERTEX
  8
72_ARTEK_AKFURNITURE_D2_CH_ARM
 10
0.571532
 20
-0.0862872
 30
0
  0
VERTEX
  8
72_ARTEK_AKFURNITURE_D2_CH_ARM
 10
0.572848
 20
-0.0866445
 30
0
  0
VERTEX
  8
72_ARTEK_AKFURNITURE_D2_CH_ARM
 10
0.574182
 20
-0.0868618
 30
0
  0
VERTEX
  8
72_ARTEK_AKFURNITURE_D2_CH_ARM
 10
0.575524
 20
-0.0869378
 30
0
  0
VERTEX
  8
72_ARTEK_AKFURNITURE_D2_CH_ARM
 10
0.57686
 20
-0.0868708
 30
0
  0
VERTEX
  8
72_ARTEK_AKFURNITURE_D2_CH_ARM
 10
0.578179
 20
-0.0866595
 30
0
  0
VERTEX
  8
72_ARTEK_AKFURNITURE_D2_CH_ARM
 10
0.579469
 20
-0.0863024
 30
0
  0
VERTEX
  8
72_ARTEK_AKFURNITURE_D2_CH_ARM
 10
0.580719
 20
-0.0857981
 30
0
  0
VERTEX
  8
72_ARTEK_AKFURNITURE_D2_CH_ARM
 10
0.581917
 20
-0.0851452
 30
0
  0
VERTEX
  8
72_ARTEK_AKFURNITURE_D2_CH_ARM
 10
0.583051
 20
-0.0843421
 30
0
  0
VERTEX
  8
72_ARTEK_AKFURNITURE_D2_CH_ARM
 10
0.584109
 20
-0.0833874
 30
0
  0
VERTEX
  8
72_ARTEK_AKFURNITURE_D2_CH_ARM
 10
0.58508
 20
-0.0822796
 30
0
  0
VERTEX
  8
72_ARTEK_AKFURNITURE_D2_CH_ARM
 10
0.585951
 20
-0.0810174
 30
0
  0
VERTEX
  8
72_ARTEK_AKFURNITURE_D2_CH_ARM
 10
0.586712
 20
-0.0795992
 30
0
  0
VERTEX
  8
72_ARTEK_AKFURNITURE_D2_CH_ARM
 10
0.5872
 20
-0.0784975
 30
0
  0
VERTEX
  8
72_ARTEK_AKFURNITURE_D2_CH_ARM
 10
0.587655
 20
-0.0773518
 30
0
  0
VERTEX
  8
72_ARTEK_AKFURNITURE_D2_CH_ARM
 10
0.588079
 20
-0.0761668
 30
0
  0
VERTEX
  8
72_ARTEK_AKFURNITURE_D2_CH_ARM
 10
0.588475
 20
-0.0749476
 30
0
  0
VERTEX
  8
72_ARTEK_AKFURNITURE_D2_CH_ARM
 10
0.588843
 20
-0.073699
 30
0
  0
VERTEX
  8
72_ARTEK_AKFURNITURE_D2_CH_ARM
 10
0.589186
 20
-0.0724262
 30
0
  0
VERTEX
  8
72_ARTEK_AKFURNITURE_D2_CH_ARM
 10
0.589505
 20
-0.071134
 30
0
  0
VERTEX
  8
72_ARTEK_AKFURNITURE_D2_CH_ARM
 10
0.589803
 20
-0.0698273
 30
0
  0
VERTEX
  8
72_ARTEK_AKFURNITURE_D2_CH_ARM
 10
0.590081
 20
-0.0685113
 30
0
  0
VERTEX
  8
72_ARTEK_AKFURNITURE_D2_CH_ARM
 10
0.590341
 20
-0.0671908
 30
0
  0
VERTEX
  8
72_ARTEK_AKFURNITURE_D2_CH_ARM
 10
0.590585
 20
-0.0658706
 30
0
  0
VERTEX
  8
72_ARTEK_AKFURNITURE_D2_CH_ARM
 10
0.590815
 20
-0.0645559
 30
0
  0
VERTEX
  8
72_ARTEK_AKFURNITURE_D2_CH_ARM
 10
0.591033
 20
-0.0632516
 30
0
  0
VERTEX
  8
72_ARTEK_AKFURNITURE_D2_CH_ARM
 10
0.59124
 20
-0.0619625
 30
0
  0
VERTEX
  8
72_ARTEK_AKFURNITURE_D2_CH_ARM
 10
0.591438
 20
-0.0606937
 30
0
  0
VERTEX
  8
72_ARTEK_AKFURNITURE_D2_CH_ARM
 10
0.591629
 20
-0.0594501
 30
0
  0
VERTEX
  8
72_ARTEK_AKFURNITURE_D2_CH_ARM
 10
0.591816
 20
-0.0582369
 30
0
  0
VERTEX
  8
72_ARTEK_AKFURNITURE_D2_CH_ARM
 10
0.591999
 20
-0.0570586
 30
0
  0
VERTEX
  8
72_ARTEK_AKFURNITURE_D2_CH_ARM
 10
0.592181
 20
-0.0559205
 30
0
  0
VERTEX
  8
72_ARTEK_AKFURNITURE_D2_CH_ARM
 10
0.592364
 20
-0.0548275
 30
0
  0
VERTEX
  8
72_ARTEK_AKFURNITURE_D2_CH_ARM
 10
0.592788
 20
-0.052317
 30
0
  0
VERTEX
  8
72_ARTEK_AKFURNITURE_D2_CH_ARM
 10
0.593198
 20
-0.0498043
 30
0
  0
VERTEX
  8
72_ARTEK_AKFURNITURE_D2_CH_ARM
 10
0.593595
 20
-0.0472895
 30
0
  0
VERTEX
  8
72_ARTEK_AKFURNITURE_D2_CH_ARM
 10
0.593979
 20
-0.0447726
 30
0
  0
VERTEX
  8
72_ARTEK_AKFURNITURE_D2_CH_ARM
 10
0.594349
 20
-0.0422536
 30
0
  0
VERTEX
  8
72_ARTEK_AKFURNITURE_D2_CH_ARM
 10
0.594707
 20
-0.0397329
 30
0
  0
VERTEX
  8
72_ARTEK_AKFURNITURE_D2_CH_ARM
 10
0.595051
 20
-0.0372103
 30
0
  0
VERTEX
  8
72_ARTEK_AKFURNITURE_D2_CH_ARM
 10
0.595384
 20
-0.034686
 30
0
  0
VERTEX
  8
72_ARTEK_AKFURNITURE_D2_CH_ARM
 10
0.595704
 20
-0.0321601
 30
0
  0
VERTEX
  8
72_ARTEK_AKFURNITURE_D2_CH_ARM
 10
0.596011
 20
-0.0296326
 30
0
  0
VERTEX
  8
72_ARTEK_AKFURNITURE_D2_CH_ARM
 10
0.596307
 20
-0.0271037
 30
0
  0
VERTEX
  8
72_ARTEK_AKFURNITURE_D2_CH_ARM
 10
0.59659
 20
-0.0245733
 30
0
  0
VERTEX
  8
72_ARTEK_AKFURNITURE_D2_CH_ARM
 10
0.596862
 20
-0.0220417
 30
0
  0
VERTEX
  8
72_ARTEK_AKFURNITURE_D2_CH_ARM
 10
0.597122
 20
-0.0195087
 30
0
  0
VERTEX
  8
72_ARTEK_AKFURNITURE_D2_CH_ARM
 10
0.59737
 20
-0.0169749
 30
0
  0
VERTEX
  8
72_ARTEK_AKFURNITURE_D2_CH_ARM
 10
0.597608
 20
-0.0144398
 30
0
  0
VERTEX
  8
72_ARTEK_AKFURNITURE_D2_CH_ARM
 10
0.597834
 20
-0.0119038
 30
0
  0
VERTEX
  8
72_ARTEK_AKFURNITURE_D2_CH_ARM
 10
0.598049
 20
-0.00936699
 30
0
  0
VERTEX
  8
72_ARTEK_AKFURNITURE_D2_CH_ARM
 10
0.598254
 20
-0.0068293
 30
0
  0
VERTEX
  8
72_ARTEK_AKFURNITURE_D2_CH_ARM
 10
0.598447
 20
-0.004291
 30
0
  0
VERTEX
  8
72_ARTEK_AKFURNITURE_D2_CH_ARM
 10
0.59864
 20
-0.00159752
 30
0
  0
VERTEX
  8
72_ARTEK_AKFURNITURE_D2_CH_ARM
 10
0.598818
 20
0.0010955
 30
0
  0
VERTEX
  8
72_ARTEK_AKFURNITURE_D2_CH_ARM
 10
0.598982
 20
0.00378776
 30
0
  0
VERTEX
  8
72_ARTEK_AKFURNITURE_D2_CH_ARM
 10
0.599132
 20
0.00647972
 30
0
  0
VERTEX
  8
72_ARTEK_AKFURNITURE_D2_CH_ARM
 10
0.599269
 20
0.00917137
 30
0
  0
VERTEX
  8
72_ARTEK_AKFURNITURE_D2_CH_ARM
 10
0.599394
 20
0.0118627
 30
0
  0
VERTEX
  8
72_ARTEK_AKFURNITURE_D2_CH_ARM
 10
0.599508
 20
0.0145539
 30
0
  0
VERTEX
  8
72_ARTEK_AKFURNITURE_D2_CH_ARM
 10
0.59961
 20
0.0172451
 30
0
  0
VERTEX
  8
72_ARTEK_AKFURNITURE_D2_CH_ARM
 10
0.599701
 20
0.0199364
 30
0
  0
VERTEX
  8
72_ARTEK_AKFURNITURE_D2_CH_ARM
 10
0.599783
 20
0.0226279
 30
0
  0
VERTEX
  8
72_ARTEK_AKFURNITURE_D2_CH_ARM
 10
0.599855
 20
0.0253196
 30
0
  0
VERTEX
  8
72_ARTEK_AKFURNITURE_D2_CH_ARM
 10
0.599918
 20
0.0280119
 30
0
  0
VERTEX
  8
72_ARTEK_AKFURNITURE_D2_CH_ARM
 10
0.599973
 20
0.0307044
 30
0
  0
VERTEX
  8
72_ARTEK_AKFURNITURE_D2_CH_ARM
 10
0.600021
 20
0.0333978
 30
0
  0
VERTEX
  8
72_ARTEK_AKFURNITURE_D2_CH_ARM
 10
0.600061
 20
0.0360917
 30
0
  0
VERTEX
  8
72_ARTEK_AKFURNITURE_D2_CH_ARM
 10
0.600095
 20
0.0387864
 30
0
  0
VERTEX
  8
72_ARTEK_AKFURNITURE_D2_CH_ARM
 10
0.600123
 20
0.041482
 30
0
  0
VERTEX
  8
72_ARTEK_AKFURNITURE_D2_CH_ARM
 10
0.600145
 20
0.0441787
 30
0
  0
VERTEX
  8
72_ARTEK_AKFURNITURE_D2_CH_ARM
 10
0.600163
 20
0.0468766
 30
0
  0
VERTEX
  8
72_ARTEK_AKFURNITURE_D2_CH_ARM
 10
0.600177
 20
0.0495756
 30
0
  0
VERTEX
  8
72_ARTEK_AKFURNITURE_D2_CH_ARM
 10
0.600082
 20
0.0539822
 30
0
  0
VERTEX
  8
72_ARTEK_AKFURNITURE_D2_CH_ARM
 10
0.599973
 20
0.0583889
 30
0
  0
VERTEX
  8
72_ARTEK_AKFURNITURE_D2_CH_ARM
 10
0.599849
 20
0.0627953
 30
0
  0
VERTEX
  8
72_ARTEK_AKFURNITURE_D2_CH_ARM
 10
0.599709
 20
0.0672013
 30
0
  0
VERTEX
  8
72_ARTEK_AKFURNITURE_D2_CH_ARM
 10
0.59955
 20
0.0716065
 30
0
  0
VERTEX
  8
72_ARTEK_AKFURNITURE_D2_CH_ARM
 10
0.599371
 20
0.0760108
 30
0
  0
VERTEX
  8
72_ARTEK_AKFURNITURE_D2_CH_ARM
 10
0.59917
 20
0.0804139
 30
0
  0
VERTEX
  8
72_ARTEK_AKFURNITURE_D2_CH_ARM
 10
0.598945
 20
0.0848154
 30
0
  0
VERTEX
  8
72_ARTEK_AKFURNITURE_D2_CH_ARM
 10
0.598693
 20
0.0892152
 30
0
  0
VERTEX
  8
72_ARTEK_AKFURNITURE_D2_CH_ARM
 10
0.598414
 20
0.0936129
 30
0
  0
VERTEX
  8
72_ARTEK_AKFURNITURE_D2_CH_ARM
 10
0.598106
 20
0.0980083
 30
0
  0
VERTEX
  8
72_ARTEK_AKFURNITURE_D2_CH_ARM
 10
0.597766
 20
0.102401
 30
0
  0
VERTEX
  8
72_ARTEK_AKFURNITURE_D2_CH_ARM
 10
0.597393
 20
0.106791
 30
0
  0
VERTEX
  8
72_ARTEK_AKFURNITURE_D2_CH_ARM
 10
0.596985
 20
0.111179
 30
0
  0
VERTEX
  8
72_ARTEK_AKFURNITURE_D2_CH_ARM
 10
0.59654
 20
0.115562
 30
0
  0
VERTEX
  8
72_ARTEK_AKFURNITURE_D2_CH_ARM
 10
0.596056
 20
0.119942
 30
0
  0
VERTEX
  8
72_ARTEK_AKFURNITURE_D2_CH_ARM
 10
0.595532
 20
0.124319
 30
0
  0
VERTEX
  8
72_ARTEK_AKFURNITURE_D2_CH_ARM
 10
0.594965
 20
0.128691
 30
0
  0
VERTEX
  8
72_ARTEK_AKFURNITURE_D2_CH_ARM
 10
0.594354
 20
0.133059
 30
0
  0
VERTEX
  8
72_ARTEK_AKFURNITURE_D2_CH_ARM
 10
0.593698
 20
0.137422
 30
0
  0
VERTEX
  8
72_ARTEK_AKFURNITURE_D2_CH_ARM
 10
0.593327
 20
0.139763
 30
0
  0
VERTEX
  8
72_ARTEK_AKFURNITURE_D2_CH_ARM
 10
0.592943
 20
0.14211
 30
0
  0
VERTEX
  8
72_ARTEK_AKFURNITURE_D2_CH_ARM
 10
0.592544
 20
0.14446
 30
0
  0
VERTEX
  8
72_ARTEK_AKFURNITURE_D2_CH_ARM
 10
0.592125
 20
0.146811
 30
0
  0
VERTEX
  8
72_ARTEK_AKFURNITURE_D2_CH_ARM
 10
0.591684
 20
0.149162
 30
0
  0
VERTEX
  8
72_ARTEK_AKFURNITURE_D2_CH_ARM
 10
0.591218
 20
0.15151
 30
0
  0
VERTEX
  8
72_ARTEK_AKFURNITURE_D2_CH_ARM
 10
0.590723
 20
0.153853
 30
0
  0
VERTEX
  8
72_ARTEK_AKFURNITURE_D2_CH_ARM
 10
0.590198
 20
0.15619
 30
0
  0
VERTEX
  8
72_ARTEK_AKFURNITURE_D2_CH_ARM
 10
0.589639
 20
0.158518
 30
0
  0
VERTEX
  8
72_ARTEK_AKFURNITURE_D2_CH_ARM
 10
0.589044
 20
0.160836
 30
0
  0
VERTEX
  8
72_ARTEK_AKFURNITURE_D2_CH_ARM
 10
0.588408
 20
0.163141
 30
0
  0
VERTEX
  8
72_ARTEK_AKFURNITURE_D2_CH_ARM
 10
0.58773
 20
0.165432
 30
0
  0
VERTEX
  8
72_ARTEK_AKFURNITURE_D2_CH_ARM
 10
0.587006
 20
0.167706
 30
0
  0
VERTEX
  8
72_ARTEK_AKFURNITURE_D2_CH_ARM
 10
0.586233
 20
0.169961
 30
0
  0
VERTEX
  8
72_ARTEK_AKFURNITURE_D2_CH_ARM
 10
0.585409
 20
0.172197
 30
0
  0
VERTEX
  8
72_ARTEK_AKFURNITURE_D2_CH_ARM
 10
0.58453
 20
0.174409
 30
0
  0
VERTEX
  8
72_ARTEK_AKFURNITURE_D2_CH_ARM
 10
0.583593
 20
0.176598
 30
0
  0
VERTEX
  8
72_ARTEK_AKFURNITURE_D2_CH_ARM
 10
0.582596
 20
0.17876
 30
0
  0
VERTEX
  8
72_ARTEK_AKFURNITURE_D2_CH_ARM
 10
0.581536
 20
0.180894
 30
0
  0
VERTEX
  8
72_ARTEK_AKFURNITURE_D2_CH_ARM
 10
0.58048
 20
0.182864
 30
0
  0
SEQEND
  0
POLYLINE
  8
72_ARTEK_AKFURNITURE_D2_CH_ARM
 66
     1
 70
     0
 10
0.0
 20
0.0
 30
0.0
  0
VERTEX
  8
72_ARTEK_AKFURNITURE_D2_CH_ARM
 10
0.0197199
 20
0.182864
 30
0
  0
VERTEX
  8
72_ARTEK_AKFURNITURE_D2_CH_ARM
 10
0.0198165
 20
0.182804
 30
0
  0
VERTEX
  8
72_ARTEK_AKFURNITURE_D2_CH_ARM
 10
0.0204436
 20
0.182435
 30
0
  0
VERTEX
  8
72_ARTEK_AKFURNITURE_D2_CH_ARM
 10
0.0210756
 20
0.182087
 30
0
  0
VERTEX
  8
72_ARTEK_AKFURNITURE_D2_CH_ARM
 10
0.0217128
 20
0.181757
 30
0
  0
VERTEX
  8
72_ARTEK_AKFURNITURE_D2_CH_ARM
 10
0.0223552
 20
0.181444
 30
0
  0
VERTEX
  8
72_ARTEK_AKFURNITURE_D2_CH_ARM
 10
0.0230031
 20
0.181148
 30
0
  0
VERTEX
  8
72_ARTEK_AKFURNITURE_D2_CH_ARM
 10
0.0236565
 20
0.180868
 30
0
  0
VERTEX
  8
72_ARTEK_AKFURNITURE_D2_CH_ARM
 10
0.0243154
 20
0.180603
 30
0
  0
VERTEX
  8
72_ARTEK_AKFURNITURE_D2_CH_ARM
 10
0.0249804
 20
0.180352
 30
0
  0
VERTEX
  8
72_ARTEK_AKFURNITURE_D2_CH_ARM
 10
0.0256511
 20
0.180113
 30
0
  0
VERTEX
  8
72_ARTEK_AKFURNITURE_D2_CH_ARM
 10
0.026328
 20
0.179886
 30
0
  0
VERTEX
  8
72_ARTEK_AKFURNITURE_D2_CH_ARM
 10
0.027011
 20
0.17967
 30
0
  0
VERTEX
  8
72_ARTEK_AKFURNITURE_D2_CH_ARM
 10
0.0277004
 20
0.179464
 30
0
  0
VERTEX
  8
72_ARTEK_AKFURNITURE_D2_CH_ARM
 10
0.0283965
 20
0.179266
 30
0
  0
VERTEX
  8
72_ARTEK_AKFURNITURE_D2_CH_ARM
 10
0.029099
 20
0.179077
 30
0
  0
VERTEX
  8
72_ARTEK_AKFURNITURE_D2_CH_ARM
 10
0.0298082
 20
0.178895
 30
0
  0
VERTEX
  8
72_ARTEK_AKFURNITURE_D2_CH_ARM
 10
0.0305245
 20
0.178718
 30
0
  0
VERTEX
  8
72_ARTEK_AKFURNITURE_D2_CH_ARM
 10
0.0312478
 20
0.178547
 30
0
  0
VERTEX
  8
72_ARTEK_AKFURNITURE_D2_CH_ARM
 10
0.0314234
 20
0.178547
 30
0
  0
VERTEX
  8
72_ARTEK_AKFURNITURE_D2_CH_ARM
 10
0.0329015
 20
0.178142
 30
0
  0
VERTEX
  8
72_ARTEK_AKFURNITURE_D2_CH_ARM
 10
0.0355822
 20
0.177502
 30
0
  0
VERTEX
  8
72_ARTEK_AKFURNITURE_D2_CH_ARM
 10
0.0382982
 20
0.176916
 30
0
  0
VERTEX
  8
72_ARTEK_AKFURNITURE_D2_CH_ARM
 10
0.0410347
 20
0.176359
 30
0
  0
VERTEX
  8
72_ARTEK_AKFURNITURE_D2_CH_ARM
 10
0.0437764
 20
0.175806
 30
0
  0
VERTEX
  8
72_ARTEK_AKFURNITURE_D2_CH_ARM
 10
0.0465084
 20
0.175231
 30
0
  0
VERTEX
  8
72_ARTEK_AKFURNITURE_D2_CH_ARM
 10
0.0492159
 20
0.174609
 30
0
  0
VERTEX
  8
72_ARTEK_AKFURNITURE_D2_CH_ARM
 10
0.0518837
 20
0.173915
 30
0
  0
VERTEX
  8
72_ARTEK_AKFURNITURE_D2_CH_ARM
 10
0.054497
 20
0.173124
 30
0
  0
VERTEX
  8
72_ARTEK_AKFURNITURE_D2_CH_ARM
 10
0.0570406
 20
0.17221
 30
0
  0
VERTEX
  8
72_ARTEK_AKFURNITURE_D2_CH_ARM
 10
0.0594997
 20
0.171148
 30
0
  0
VERTEX
  8
72_ARTEK_AKFURNITURE_D2_CH_ARM
 10
0.0613402
 20
0.170202
 30
0
  0
VERTEX
  8
72_ARTEK_AKFURNITURE_D2_CH_ARM
 10
0.0630858
 20
0.169161
 30
0
  0
VERTEX
  8
72_ARTEK_AKFURNITURE_D2_CH_ARM
 10
0.0647423
 20
0.168031
 30
0
  0
VERTEX
  8
72_ARTEK_AKFURNITURE_D2_CH_ARM
 10
0.0663146
 20
0.166817
 30
0
  0
VERTEX
  8
72_ARTEK_AKFURNITURE_D2_CH_ARM
 10
0.0678084
 20
0.165527
 30
0
  0
VERTEX
  8
72_ARTEK_AKFURNITURE_D2_CH_ARM
 10
0.0692293
 20
0.164165
 30
0
  0
VERTEX
  8
72_ARTEK_AKFURNITURE_D2_CH_ARM
 10
0.0705825
 20
0.162738
 30
0
  0
VERTEX
  8
72_ARTEK_AKFURNITURE_D2_CH_ARM
 10
0.0718734
 20
0.161251
 30
0
  0
VERTEX
  8
72_ARTEK_AKFURNITURE_D2_CH_ARM
 10
0.0731078
 20
0.15971
 30
0
  0
VERTEX
  8
72_ARTEK_AKFURNITURE_D2_CH_ARM
 10
0.0736991
 20
0.158916
 30
0
  0
VERTEX
  8
72_ARTEK_AKFURNITURE_D2_CH_ARM
 10
0.0738179
 20
0.157708
 30
0
  0
VERTEX
  8
72_ARTEK_AKFURNITURE_D2_CH_ARM
 10
0.0738476
 20
0.157278
 30
0
  0
VERTEX
  8
72_ARTEK_AKFURNITURE_D2_CH_ARM
 10
0.0738555
 20
0.156889
 30
0
  0
VERTEX
  8
72_ARTEK_AKFURNITURE_D2_CH_ARM
 10
0.0738424
 20
0.156538
 30
0
  0
VERTEX
  8
72_ARTEK_AKFURNITURE_D2_CH_ARM
 10
0.0738088
 20
0.156221
 30
0
  0
VERTEX
  8
72_ARTEK_AKFURNITURE_D2_CH_ARM
 10
0.0737557
 20
0.155932
 30
0
  0
VERTEX
  8
72_ARTEK_AKFURNITURE_D2_CH_ARM
 10
0.0736834
 20
0.155669
 30
0
  0
VERTEX
  8
72_ARTEK_AKFURNITURE_D2_CH_ARM
 10
0.073593
 20
0.155427
 30
0
  0
VERTEX
  8
72_ARTEK_AKFURNITURE_D2_CH_ARM
 10
0.073485
 20
0.155201
 30
0
  0
VERTEX
  8
72_ARTEK_AKFURNITURE_D2_CH_ARM
 10
0.0733599
 20
0.154988
 30
0
  0
VERTEX
  8
72_ARTEK_AKFURNITURE_D2_CH_ARM
 10
0.0732186
 20
0.154783
 30
0
  0
VERTEX
  8
72_ARTEK_AKFURNITURE_D2_CH_ARM
 10
0.0730617
 20
0.154583
 30
0
  0
VERTEX
  8
72_ARTEK_AKFURNITURE_D2_CH_ARM
 10
0.0728899
 20
0.154383
 30
0
  0
VERTEX
  8
72_ARTEK_AKFURNITURE_D2_CH_ARM
 10
0.0727041
 20
0.15418
 30
0
  0
VERTEX
  8
72_ARTEK_AKFURNITURE_D2_CH_ARM
 10
0.0725045
 20
0.153968
 30
0
  0
VERTEX
  8
72_ARTEK_AKFURNITURE_D2_CH_ARM
 10
0.0722921
 20
0.153744
 30
0
  0
VERTEX
  8
72_ARTEK_AKFURNITURE_D2_CH_ARM
 10
0.0720678
 20
0.153503
 30
0
  0
VERTEX
  8
72_ARTEK_AKFURNITURE_D2_CH_ARM
 10
0.0718319
 20
0.153243
 30
0
  0
VERTEX
  8
72_ARTEK_AKFURNITURE_D2_CH_ARM
 10
0.071585
 20
0.152957
 30
0
  0
VERTEX
  8
72_ARTEK_AKFURNITURE_D2_CH_ARM
 10
0.0713283
 20
0.152643
 30
0
  0
VERTEX
  8
72_ARTEK_AKFURNITURE_D2_CH_ARM
 10
0.0710622
 20
0.152296
 30
0
  0
VERTEX
  8
72_ARTEK_AKFURNITURE_D2_CH_ARM
 10
0.0709078
 20
0.152085
 30
0
  0
VERTEX
  8
72_ARTEK_AKFURNITURE_D2_CH_ARM
 10
0.0707537
 20
0.15187
 30
0
  0
VERTEX
  8
72_ARTEK_AKFURNITURE_D2_CH_ARM
 10
0.0706002
 20
0.151651
 30
0
  0
VERTEX
  8
72_ARTEK_AKFURNITURE_D2_CH_ARM
 10
0.0704473
 20
0.151427
 30
0
  0
VERTEX
  8
72_ARTEK_AKFURNITURE_D2_CH_ARM
 10
0.0702953
 20
0.1512
 30
0
  0
VERTEX
  8
72_ARTEK_AKFURNITURE_D2_CH_ARM
 10
0.0701452
 20
0.150969
 30
0
  0
VERTEX
  8
72_ARTEK_AKFURNITURE_D2_CH_ARM
 10
0.0699965
 20
0.150736
 30
0
  0
VERTEX
  8
72_ARTEK_AKFURNITURE_D2_CH_ARM
 10
0.0698497
 20
0.1505
 30
0
  0
VERTEX
  8
72_ARTEK_AKFURNITURE_D2_CH_ARM
 10
0.0697054
 20
0.150262
 30
0
  0
VERTEX
  8
72_ARTEK_AKFURNITURE_D2_CH_ARM
 10
0.0695638
 20
0.150021
 30
0
  0
VERTEX
  8
72_ARTEK_AKFURNITURE_D2_CH_ARM
 10
0.0694249
 20
0.149779
 30
0
  0
VERTEX
  8
72_ARTEK_AKFURNITURE_D2_CH_ARM
 10
0.0692891
 20
0.149536
 30
0
  0
VERTEX
  8
72_ARTEK_AKFURNITURE_D2_CH_ARM
 10
0.0691573
 20
0.149292
 30
0
  0
VERTEX
  8
72_ARTEK_AKFURNITURE_D2_CH_ARM
 10
0.0690288
 20
0.149048
 30
0
  0
VERTEX
  8
72_ARTEK_AKFURNITURE_D2_CH_ARM
 10
0.0689046
 20
0.148803
 30
0
  0
VERTEX
  8
72_ARTEK_AKFURNITURE_D2_CH_ARM
 10
0.068785
 20
0.148559
 30
0
  0
VERTEX
  8
72_ARTEK_AKFURNITURE_D2_CH_ARM
 10
0.0686699
 20
0.148315
 30
0
  0
VERTEX
  8
72_ARTEK_AKFURNITURE_D2_CH_ARM
 10
0.0685598
 20
0.148072
 30
0
  0
VERTEX
  8
72_ARTEK_AKFURNITURE_D2_CH_ARM
 10
0.0684551
 20
0.14783
 30
0
  0
VERTEX
  8
72_ARTEK_AKFURNITURE_D2_CH_ARM
 10
0.0683559
 20
0.147589
 30
0
  0
VERTEX
  8
72_ARTEK_AKFURNITURE_D2_CH_ARM
 10
0.0679305
 20
0.146435
 30
0
  0
VERTEX
  8
72_ARTEK_AKFURNITURE_D2_CH_ARM
 10
0.067539
 20
0.145186
 30
0
  0
VERTEX
  8
72_ARTEK_AKFURNITURE_D2_CH_ARM
 10
0.0671795
 20
0.143854
 30
0
  0
VERTEX
  8
72_ARTEK_AKFURNITURE_D2_CH_ARM
 10
0.0668502
 20
0.142452
 30
0
  0
VERTEX
  8
72_ARTEK_AKFURNITURE_D2_CH_ARM
 10
0.066549
 20
0.140993
 30
0
  0
VERTEX
  8
72_ARTEK_AKFURNITURE_D2_CH_ARM
 10
0.0662743
 20
0.139488
 30
0
  0
VERTEX
  8
72_ARTEK_AKFURNITURE_D2_CH_ARM
 10
0.0660244
 20
0.137951
 30
0
  0
VERTEX
  8
72_ARTEK_AKFURNITURE_D2_CH_ARM
 10
0.065797
 20
0.136392
 30
0
  0
VERTEX
  8
72_ARTEK_AKFURNITURE_D2_CH_ARM
 10
0.0655907
 20
0.134826
 30
0
  0
VERTEX
  8
72_ARTEK_AKFURNITURE_D2_CH_ARM
 10
0.0654033
 20
0.133264
 30
0
  0
VERTEX
  8
72_ARTEK_AKFURNITURE_D2_CH_ARM
 10
0.065233
 20
0.131719
 30
0
  0
VERTEX
  8
72_ARTEK_AKFURNITURE_D2_CH_ARM
 10
0.065078
 20
0.130203
 30
0
  0
VERTEX
  8
72_ARTEK_AKFURNITURE_D2_CH_ARM
 10
0.0649364
 20
0.128728
 30
0
  0
VERTEX
  8
72_ARTEK_AKFURNITURE_D2_CH_ARM
 10
0.0648064
 20
0.127308
 30
0
  0
VERTEX
  8
72_ARTEK_AKFURNITURE_D2_CH_ARM
 10
0.0646862
 20
0.125953
 30
0
  0
VERTEX
  8
72_ARTEK_AKFURNITURE_D2_CH_ARM
 10
0.0645736
 20
0.124677
 30
0
  0
VERTEX
  8
72_ARTEK_AKFURNITURE_D2_CH_ARM
 10
0.0644671
 20
0.123492
 30
0
  0
VERTEX
  8
72_ARTEK_AKFURNITURE_D2_CH_ARM
 10
0.0643648
 20
0.122411
 30
0
  0
VERTEX
  8
72_ARTEK_AKFURNITURE_D2_CH_ARM
 10
0.0642647
 20
0.121445
 30
0
  0
VERTEX
  8
72_ARTEK_AKFURNITURE_D2_CH_ARM
 10
0.0641649
 20
0.120608
 30
0
  0
VERTEX
  8
72_ARTEK_AKFURNITURE_D2_CH_ARM
 10
0.0419594
 20
-0.0500057
 30
0
  0
VERTEX
  8
72_ARTEK_AKFURNITURE_D2_CH_ARM
 10
0.0418337
 20
-0.0510755
 30
0
  0
VERTEX
  8
72_ARTEK_AKFURNITURE_D2_CH_ARM
 10
0.0417162
 20
-0.0522637
 30
0
  0
VERTEX
  8
72_ARTEK_AKFURNITURE_D2_CH_ARM
 10
0.0416027
 20
-0.0535581
 30
0
  0
VERTEX
  8
72_ARTEK_AKFURNITURE_D2_CH_ARM
 10
0.0414892
 20
-0.0549465
 30
0
  0
VERTEX
  8
72_ARTEK_AKFURNITURE_D2_CH_ARM
 10
0.0413717
 20
-0.0564169
 30
0
  0
VERTEX
  8
72_ARTEK_AKFURNITURE_D2_CH_ARM
 10
0.0412459
 20
-0.0579568
 30
0
  0
VERTEX
  8
72_ARTEK_AKFURNITURE_D2_CH_ARM
 10
0.0411083
 20
-0.0595542
 30
0
  0
VERTEX
  8
72_ARTEK_AKFURNITURE_D2_CH_ARM
 10
0.0409542
 20
-0.0611967
 30
0
  0
VERTEX
  8
72_ARTEK_AKFURNITURE_D2_CH_ARM
 10
0.0407802
 20
-0.0628722
 30
0
  0
VERTEX
  8
72_ARTEK_AKFURNITURE_D2_CH_ARM
 10
0.0405819
 20
-0.0645686
 30
0
  0
VERTEX
  8
72_ARTEK_AKFURNITURE_D2_CH_ARM
 10
0.0403554
 20
-0.0662734
 30
0
  0
VERTEX
  8
72_ARTEK_AKFURNITURE_D2_CH_ARM
 10
0.0400966
 20
-0.0679746
 30
0
  0
VERTEX
  8
72_ARTEK_AKFURNITURE_D2_CH_ARM
 10
0.0398015
 20
-0.0696601
 30
0
  0
VERTEX
  8
72_ARTEK_AKFURNITURE_D2_CH_ARM
 10
0.0394658
 20
-0.0713174
 30
0
  0
VERTEX
  8
72_ARTEK_AKFURNITURE_D2_CH_ARM
 10
0.0390862
 20
-0.0729345
 30
0
  0
VERTEX
  8
72_ARTEK_AKFURNITURE_D2_CH_ARM
 10
0.0386577
 20
-0.074499
 30
0
  0
VERTEX
  8
72_ARTEK_AKFURNITURE_D2_CH_ARM
 10
0.0381771
 20
-0.0759989
 30
0
  0
VERTEX
  8
72_ARTEK_AKFURNITURE_D2_CH_ARM
 10
0.0376397
 20
-0.0774219
 30
0
  0
VERTEX
  8
72_ARTEK_AKFURNITURE_D2_CH_ARM
 10
0.0370418
 20
-0.0787557
 30
0
  0
VERTEX
  8
72_ARTEK_AKFURNITURE_D2_CH_ARM
 10
0.0363796
 20
-0.0799883
 30
0
  0
VERTEX
  8
72_ARTEK_AKFURNITURE_D2_CH_ARM
 10
0.0355211
 20
-0.0812849
 30
0
  0
VERTEX
  8
72_ARTEK_AKFURNITURE_D2_CH_ARM
 10
0.0345623
 20
-0.0824516
 30
0
  0
VERTEX
  8
72_ARTEK_AKFURNITURE_D2_CH_ARM
 10
0.0335143
 20
-0.083487
 30
0
  0
VERTEX
  8
72_ARTEK_AKFURNITURE_D2_CH_ARM
 10
0.0323891
 20
-0.0843897
 30
0
  0
VERTEX
  8
72_ARTEK_AKFURNITURE_D2_CH_ARM
 10
0.0311986
 20
-0.0851583
 30
0
  0
VERTEX
  8
72_ARTEK_AKFURNITURE_D2_CH_ARM
 10
0.0299544
 20
-0.0857912
 30
0
  0
VERTEX
  8
72_ARTEK_AKFURNITURE_D2_CH_ARM
 10
0.0286684
 20
-0.0862872
 30
0
  0
VERTEX
  8
72_ARTEK_AKFURNITURE_D2_CH_ARM
 10
0.0273522
 20
-0.0866445
 30
0
  0
VERTEX
  8
72_ARTEK_AKFURNITURE_D2_CH_ARM
 10
0.0260177
 20
-0.0868618
 30
0
  0
VERTEX
  8
72_ARTEK_AKFURNITURE_D2_CH_ARM
 10
0.0246764
 20
-0.0869378
 30
0
  0
VERTEX
  8
72_ARTEK_AKFURNITURE_D2_CH_ARM
 10
0.0233403
 20
-0.0868708
 30
0
  0
VERTEX
  8
72_ARTEK_AKFURNITURE_D2_CH_ARM
 10
0.0220214
 20
-0.0866595
 30
0
  0
VERTEX
  8
72_ARTEK_AKFURNITURE_D2_CH_ARM
 10
0.0207311
 20
-0.0863024
 30
0
  0
VERTEX
  8
72_ARTEK_AKFURNITURE_D2_CH_ARM
 10
0.0194811
 20
-0.0857981
 30
0
  0
VERTEX
  8
72_ARTEK_AKFURNITURE_D2_CH_ARM
 10
0.0182833
 20
-0.0851452
 30
0
  0
VERTEX
  8
72_ARTEK_AKFURNITURE_D2_CH_ARM
 10
0.0171492
 20
-0.0843421
 30
0
  0
VERTEX
  8
72_ARTEK_AKFURNITURE_D2_CH_ARM
 10
0.0160912
 20
-0.0833874
 30
0
  0
VERTEX
  8
72_ARTEK_AKFURNITURE_D2_CH_ARM
 10
0.0151204
 20
-0.0822796
 30
0
  0
VERTEX
  8
72_ARTEK_AKFURNITURE_D2_CH_ARM
 10
0.0142489
 20
-0.0810174
 30
0
  0
VERTEX
  8
72_ARTEK_AKFURNITURE_D2_CH_ARM
 10
0.0134884
 20
-0.0795992
 30
0
  0
VERTEX
  8
72_ARTEK_AKFURNITURE_D2_CH_ARM
 10
0.0130004
 20
-0.0784975
 30
0
  0
VERTEX
  8
72_ARTEK_AKFURNITURE_D2_CH_ARM
 10
0.0125451
 20
-0.0773518
 30
0
  0
VERTEX
  8
72_ARTEK_AKFURNITURE_D2_CH_ARM
 10
0.0121209
 20
-0.0761668
 30
0
  0
VERTEX
  8
72_ARTEK_AKFURNITURE_D2_CH_ARM
 10
0.0117254
 20
-0.0749476
 30
0
  0
VERTEX
  8
72_ARTEK_AKFURNITURE_D2_CH_ARM
 10
0.0113573
 20
-0.073699
 30
0
  0
VERTEX
  8
72_ARTEK_AKFURNITURE_D2_CH_ARM
 10
0.0110143
 20
-0.0724262
 30
0
  0
VERTEX
  8
72_ARTEK_AKFURNITURE_D2_CH_ARM
 10
0.0106948
 20
-0.071134
 30
0
  0
VERTEX
  8
72_ARTEK_AKFURNITURE_D2_CH_ARM
 10
0.0103969
 20
-0.0698273
 30
0
  0
VERTEX
  8
72_ARTEK_AKFURNITURE_D2_CH_ARM
 10
0.0101189
 20
-0.0685113
 30
0
  0
VERTEX
  8
72_ARTEK_AKFURNITURE_D2_CH_ARM
 10
0.00985891
 20
-0.0671908
 30
0
  0
VERTEX
  8
72_ARTEK_AKFURNITURE_D2_CH_ARM
 10
0.00961477
 20
-0.0658706
 30
0
  0
VERTEX
  8
72_ARTEK_AKFURNITURE_D2_CH_ARM
 10
0.00938497
 20
-0.0645559
 30
0
  0
VERTEX
  8
72_ARTEK_AKFURNITURE_D2_CH_ARM
 10
0.00916738
 20
-0.0632516
 30
0
  0
VERTEX
  8
72_ARTEK_AKFURNITURE_D2_CH_ARM
 10
0.00896047
 20
-0.0619625
 30
0
  0
VERTEX
  8
72_ARTEK_AKFURNITURE_D2_CH_ARM
 10
0.00876211
 20
-0.0606937
 30
0
  0
VERTEX
  8
72_ARTEK_AKFURNITURE_D2_CH_ARM
 10
0.00857076
 20
-0.0594501
 30
0
  0
VERTEX
  8
72_ARTEK_AKFURNITURE_D2_CH_ARM
 10
0.0083843
 20
-0.0582369
 30
0
  0
VERTEX
  8
72_ARTEK_AKFURNITURE_D2_CH_ARM
 10
0.00820089
 20
-0.0570586
 30
0
  0
VERTEX
  8
72_ARTEK_AKFURNITURE_D2_CH_ARM
 10
0.0080187
 20
-0.0559205
 30
0
  0
VERTEX
  8
72_ARTEK_AKFURNITURE_D2_CH_ARM
 10
0.0078362
 20
-0.0548275
 30
0
  0
VERTEX
  8
72_ARTEK_AKFURNITURE_D2_CH_ARM
 10
0.00741232
 20
-0.052317
 30
0
  0
VERTEX
  8
72_ARTEK_AKFURNITURE_D2_CH_ARM
 10
0.00700185
 20
-0.0498043
 30
0
  0
VERTEX
  8
72_ARTEK_AKFURNITURE_D2_CH_ARM
 10
0.00660513
 20
-0.0472895
 30
0
  0
VERTEX
  8
72_ARTEK_AKFURNITURE_D2_CH_ARM
 10
0.00622121
 20
-0.0447726
 30
0
  0
VERTEX
  8
72_ARTEK_AKFURNITURE_D2_CH_ARM
 10
0.00585073
 20
-0.0422536
 30
0
  0
VERTEX
  8
72_ARTEK_AKFURNITURE_D2_CH_ARM
 10
0.00549306
 20
-0.0397329
 30
0
  0
VERTEX
  8
72_ARTEK_AKFURNITURE_D2_CH_ARM
 10
0.00514852
 20
-0.0372103
 30
0
  0
VERTEX
  8
72_ARTEK_AKFURNITURE_D2_CH_ARM
 10
0.00481618
 20
-0.034686
 30
0
  0
VERTEX
  8
72_ARTEK_AKFURNITURE_D2_CH_ARM
 10
0.00449636
 20
-0.0321601
 30
0
  0
VERTEX
  8
72_ARTEK_AKFURNITURE_D2_CH_ARM
 10
0.00418874
 20
-0.0296326
 30
0
  0
VERTEX
  8
72_ARTEK_AKFURNITURE_D2_CH_ARM
 10
0.00389333
 20
-0.0271037
 30
0
  0
VERTEX
  8
72_ARTEK_AKFURNITURE_D2_CH_ARM
 10
0.00361013
 20
-0.0245733
 30
0
  0
VERTEX
  8
72_ARTEK_AKFURNITURE_D2_CH_ARM
 10
0.00333822
 20
-0.0220417
 30
0
  0
VERTEX
  8
72_ARTEK_AKFURNITURE_D2_CH_ARM
 10
0.00307821
 20
-0.0195087
 30
0
  0
VERTEX
  8
72_ARTEK_AKFURNITURE_D2_CH_ARM
 10
0.0028298
 20
-0.0169749
 30
0
  0
VERTEX
  8
72_ARTEK_AKFURNITURE_D2_CH_ARM
 10
0.00259237
 20
-0.0144398
 30
0
  0
VERTEX
  8
72_ARTEK_AKFURNITURE_D2_CH_ARM
 10
0.00236623
 20
-0.0119038
 30
0
  0
VERTEX
  8
72_ARTEK_AKFURNITURE_D2_CH_ARM
 10
0.00215078
 20
-0.00936699
 30
0
  0
VERTEX
  8
72_ARTEK_AKFURNITURE_D2_CH_ARM
 10
0.00194631
 20
-0.0068293
 30
0
  0
VERTEX
  8
72_ARTEK_AKFURNITURE_D2_CH_ARM
 10
0.00175252
 20
-0.004291
 30
0
  0
VERTEX
  8
72_ARTEK_AKFURNITURE_D2_CH_ARM
 10
0.00155996
 20
-0.00159752
 30
0
  0
VERTEX
  8
72_ARTEK_AKFURNITURE_D2_CH_ARM
 10
0.00138204
 20
0.0010955
 30
0
  0
VERTEX
  8
72_ARTEK_AKFURNITURE_D2_CH_ARM
 10
0.00121816
 20
0.00378776
 30
0
  0
VERTEX
  8
72_ARTEK_AKFURNITURE_D2_CH_ARM
 10
0.00106802
 20
0.00647972
 30
0
  0
VERTEX
  8
72_ARTEK_AKFURNITURE_D2_CH_ARM
 10
0.000930687
 20
0.00917137
 30
0
  0
VERTEX
  8
72_ARTEK_AKFURNITURE_D2_CH_ARM
 10
0.000805557
 20
0.0118627
 30
0
  0
VERTEX
  8
72_ARTEK_AKFURNITURE_D2_CH_ARM
 10
0.000692337
 20
0.0145539
 30
0
  0
VERTEX
  8
72_ARTEK_AKFURNITURE_D2_CH_ARM
 10
0.000590107
 20
0.0172451
 30
0
  0
VERTEX
  8
72_ARTEK_AKFURNITURE_D2_CH_ARM
 10
0.000498557
 20
0.0199364
 30
0
  0
VERTEX
  8
72_ARTEK_AKFURNITURE_D2_CH_ARM
 10
0.000417077
 20
0.0226279
 30
0
  0
VERTEX
  8
72_ARTEK_AKFURNITURE_D2_CH_ARM
 10
0.000345047
 20
0.0253196
 30
0
  0
VERTEX
  8
72_ARTEK_AKFURNITURE_D2_CH_ARM
 10
0.000281577
 20
0.0280119
 30
0
  0
VERTEX
  8
72_ARTEK_AKFURNITURE_D2_CH_ARM
 10
0.000226647
 20
0.0307044
 30
0
  0
VERTEX
  8
72_ARTEK_AKFURNITURE_D2_CH_ARM
 10
0.000179337
 20
0.0333978
 30
0
  0
VERTEX
  8
72_ARTEK_AKFURNITURE_D2_CH_ARM
 10
0.000139057
 20
0.0360917
 30
0
  0
VERTEX
  8
72_ARTEK_AKFURNITURE_D2_CH_ARM
 10
0.000105187
 20
0.0387864
 30
0
  0
VERTEX
  8
72_ARTEK_AKFURNITURE_D2_CH_ARM
 10
7.71071e-005
 20
0.041482
 30
0
  0
VERTEX
  8
72_ARTEK_AKFURNITURE_D2_CH_ARM
 10
5.45271e-005
 20
0.0441787
 30
0
  0
VERTEX
  8
72_ARTEK_AKFURNITURE_D2_CH_ARM
 10
3.65171e-005
 20
0.0468766
 30
0
  0
VERTEX
  8
72_ARTEK_AKFURNITURE_D2_CH_ARM
 10
2.27871e-005
 20
0.0495756
 30
0
  0
VERTEX
  8
72_ARTEK_AKFURNITURE_D2_CH_ARM
 10
0.000118307
 20
0.0539822
 30
0
  0
VERTEX
  8
72_ARTEK_AKFURNITURE_D2_CH_ARM
 10
0.000226947
 20
0.0583889
 30
0
  0
VERTEX
  8
72_ARTEK_AKFURNITURE_D2_CH_ARM
 10
0.000350547
 20
0.0627953
 30
0
  0
VERTEX
  8
72_ARTEK_AKFURNITURE_D2_CH_ARM
 10
0.000490927
 20
0.0672013
 30
0
  0
VERTEX
  8
72_ARTEK_AKFURNITURE_D2_CH_ARM
 10
0.000649617
 20
0.0716065
 30
0
  0
VERTEX
  8
72_ARTEK_AKFURNITURE_D2_CH_ARM
 10
0.000828757
 20
0.0760108
 30
0
  0
VERTEX
  8
72_ARTEK_AKFURNITURE_D2_CH_ARM
 10
0.00103017
 20
0.0804139
 30
0
  0
VERTEX
  8
72_ARTEK_AKFURNITURE_D2_CH_ARM
 10
0.00125539
 20
0.0848154
 30
0
  0
VERTEX
  8
72_ARTEK_AKFURNITURE_D2_CH_ARM
 10
0.00150686
 20
0.0892152
 30
0
  0
VERTEX
  8
72_ARTEK_AKFURNITURE_D2_CH_ARM
 10
0.00178579
 20
0.0936129
 30
0
  0
VERTEX
  8
72_ARTEK_AKFURNITURE_D2_CH_ARM
 10
0.00209402
 20
0.0980083
 30
0
  0
VERTEX
  8
72_ARTEK_AKFURNITURE_D2_CH_ARM
 10
0.00243398
 20
0.102401
 30
0
  0
VERTEX
  8
72_ARTEK_AKFURNITURE_D2_CH_ARM
 10
0.00280721
 20
0.106791
 30
0
  0
VERTEX
  8
72_ARTEK_AKFURNITURE_D2_CH_ARM
 10
0.00321523
 20
0.111179
 30
0
  0
VERTEX
  8
72_ARTEK_AKFURNITURE_D2_CH_ARM
 10
0.00366018
 20
0.115562
 30
0
  0
VERTEX
  8
72_ARTEK_AKFURNITURE_D2_CH_ARM
 10
0.00414388
 20
0.119942
 30
0
  0
VERTEX
  8
72_ARTEK_AKFURNITURE_D2_CH_ARM
 10
0.00466817
 20
0.124319
 30
0
  0
VERTEX
  8
72_ARTEK_AKFURNITURE_D2_CH_ARM
 10
0.00523458
 20
0.128691
 30
0
  0
VERTEX
  8
72_ARTEK_AKFURNITURE_D2_CH_ARM
 10
0.00584554
 20
0.133059
 30
0
  0
VERTEX
  8
72_ARTEK_AKFURNITURE_D2_CH_ARM
 10
0.00650228
 20
0.137422
 30
0
  0
VERTEX
  8
72_ARTEK_AKFURNITURE_D2_CH_ARM
 10
0.00687276
 20
0.139763
 30
0
  0
VERTEX
  8
72_ARTEK_AKFURNITURE_D2_CH_ARM
 10
0.00725668
 20
0.14211
 30
0
  0
VERTEX
  8
72_ARTEK_AKFURNITURE_D2_CH_ARM
 10
0.00765646
 20
0.14446
 30
0
  0
VERTEX
  8
72_ARTEK_AKFURNITURE_D2_CH_ARM
 10
0.00807546
 20
0.146811
 30
0
  0
VERTEX
  8
72_ARTEK_AKFURNITURE_D2_CH_ARM
 10
0.00851644
 20
0.149162
 30
0
  0
VERTEX
  8
72_ARTEK_AKFURNITURE_D2_CH_ARM
 10
0.00898244
 20
0.15151
 30
0
  0
VERTEX
  8
72_ARTEK_AKFURNITURE_D2_CH_ARM
 10
0.00947652
 20
0.153853
 30
0
  0
VERTEX
  8
72_ARTEK_AKFURNITURE_D2_CH_ARM
 10
0.0100017
 20
0.15619
 30
0
  0
VERTEX
  8
72_ARTEK_AKFURNITURE_D2_CH_ARM
 10
0.0105605
 20
0.158518
 30
0
  0
VERTEX
  8
72_ARTEK_AKFURNITURE_D2_CH_ARM
 10
0.0111562
 20
0.160836
 30
0
  0
VERTEX
  8
72_ARTEK_AKFURNITURE_D2_CH_ARM
 10
0.0117919
 20
0.163141
 30
0
  0
VERTEX
  8
72_ARTEK_AKFURNITURE_D2_CH_ARM
 10
0.01247
 20
0.165432
 30
0
  0
VERTEX
  8
72_ARTEK_AKFURNITURE_D2_CH_ARM
 10
0.0131942
 20
0.167706
 30
0
  0
VERTEX
  8
72_ARTEK_AKFURNITURE_D2_CH_ARM
 10
0.0139669
 20
0.169961
 30
0
  0
VERTEX
  8
72_ARTEK_AKFURNITURE_D2_CH_ARM
 10
0.0147912
 20
0.172197
 30
0
  0
VERTEX
  8
72_ARTEK_AKFURNITURE_D2_CH_ARM
 10
0.0156701
 20
0.174409
 30
0
  0
VERTEX
  8
72_ARTEK_AKFURNITURE_D2_CH_ARM
 10
0.0166066
 20
0.176598
 30
0
  0
VERTEX
  8
72_ARTEK_AKFURNITURE_D2_CH_ARM
 10
0.0176037
 20
0.17876
 30
0
  0
VERTEX
  8
72_ARTEK_AKFURNITURE_D2_CH_ARM
 10
0.0186641
 20
0.180894
 30
0
  0
VERTEX
  8
72_ARTEK_AKFURNITURE_D2_CH_ARM
 10
0.0197199
 20
0.182864
 30
0
  0
SEQEND
  0
POLYLINE
  8
72_ARTEK_AKFURNITURE_D2SNAP
 66
     1
 70
     0
 10
0.0
 20
0.0
 30
0.0
  0
VERTEX
  8
72_ARTEK_AKFURNITURE_D2SNAP
 10
0.3126
 20
-0
 30
0
  0
VERTEX
  8
72_ARTEK_AKFURNITURE_D2SNAP
 10
0.31236
 20
0.00243863
 30
0
  0
VERTEX
  8
72_ARTEK_AKFURNITURE_D2SNAP
 10
0.311648
 20
0.00478354
 30
0
  0
VERTEX
  8
72_ARTEK_AKFURNITURE_D2SNAP
 10
0.310493
 20
0.00694463
 30
0
  0
VERTEX
  8
72_ARTEK_AKFURNITURE_D2SNAP
 10
0.308939
 20
0.00883883
 30
0
  0
VERTEX
  8
72_ARTEK_AKFURNITURE_D2SNAP
 10
0.307045
 20
0.0103934
 30
0
  0
VERTEX
  8
72_ARTEK_AKFURNITURE_D2SNAP
 10
0.304884
 20
0.0115485
 30
0
  0
VERTEX
  8
72_ARTEK_AKFURNITURE_D2SNAP
 10
0.302539
 20
0.0122598
 30
0
  0
VERTEX
  8
72_ARTEK_AKFURNITURE_D2SNAP
 10
0.3001
 20
0.0125
 30
0
  0
VERTEX
  8
72_ARTEK_AKFURNITURE_D2SNAP
 10
0.297661
 20
0.0122598
 30
0
  0
VERTEX
  8
72_ARTEK_AKFURNITURE_D2SNAP
 10
0.295316
 20
0.0115485
 30
0
  0
VERTEX
  8
72_ARTEK_AKFURNITURE_D2SNAP
 10
0.293155
 20
0.0103934
 30
0
  0
VERTEX
  8
72_ARTEK_AKFURNITURE_D2SNAP
 10
0.291261
 20
0.00883883
 30
0
  0
VERTEX
  8
72_ARTEK_AKFURNITURE_D2SNAP
 10
0.289707
 20
0.00694463
 30
0
  0
VERTEX
  8
72_ARTEK_AKFURNITURE_D2SNAP
 10
0.288552
 20
0.00478354
 30
0
  0
VERTEX
  8
72_ARTEK_AKFURNITURE_D2SNAP
 10
0.28784
 20
0.00243863
 30
0
  0
VERTEX
  8
72_ARTEK_AKFURNITURE_D2SNAP
 10
0.2876
 20
3.15316e-018
 30
0
  0
VERTEX
  8
72_ARTEK_AKFURNITURE_D2SNAP
 10
0.28784
 20
-0.00243863
 30
0
  0
VERTEX
  8
72_ARTEK_AKFURNITURE_D2SNAP
 10
0.288552
 20
-0.00478354
 30
0
  0
VERTEX
  8
72_ARTEK_AKFURNITURE_D2SNAP
 10
0.289707
 20
-0.00694463
 30
0
  0
VERTEX
  8
72_ARTEK_AKFURNITURE_D2SNAP
 10
0.291261
 20
-0.00883883
 30
0
  0
VERTEX
  8
72_ARTEK_AKFURNITURE_D2SNAP
 10
0.293155
 20
-0.0103934
 30
0
  0
VERTEX
  8
72_ARTEK_AKFURNITURE_D2SNAP
 10
0.295316
 20
-0.0115485
 30
0
  0
VERTEX
  8
72_ARTEK_AKFURNITURE_D2SNAP
 10
0.297661
 20
-0.0122598
 30
0
  0
VERTEX
  8
72_ARTEK_AKFURNITURE_D2SNAP
 10
0.3001
 20
-0.0125
 30
0
  0
VERTEX
  8
72_ARTEK_AKFURNITURE_D2SNAP
 10
0.302539
 20
-0.0122598
 30
0
  0
VERTEX
  8
72_ARTEK_AKFURNITURE_D2SNAP
 10
0.304884
 20
-0.0115485
 30
0
  0
VERTEX
  8
72_ARTEK_AKFURNITURE_D2SNAP
 10
0.307045
 20
-0.0103934
 30
0
  0
VERTEX
  8
72_ARTEK_AKFURNITURE_D2SNAP
 10
0.308939
 20
-0.00883883
 30
0
  0
VERTEX
  8
72_ARTEK_AKFURNITURE_D2SNAP
 10
0.310493
 20
-0.00694463
 30
0
  0
VERTEX
  8
72_ARTEK_AKFURNITURE_D2SNAP
 10
0.311648
 20
-0.00478354
 30
0
  0
VERTEX
  8
72_ARTEK_AKFURNITURE_D2SNAP
 10
0.31236
 20
-0.00243863
 30
0
  0
VERTEX
  8
72_ARTEK_AKFURNITURE_D2SNAP
 10
0.3126
 20
-0
 30
0
  0
SEQEND
  0
POLYLINE
  8
72_ARTEK_AKFURNITURE_D2SNAP
 66
     1
 70
     0
 10
0.0
 20
0.0
 30
0.0
  0
VERTEX
  8
72_ARTEK_AKFURNITURE_D2SNAP
 10
0.282422
 20
-0.0176777
 30
0
  0
VERTEX
  8
72_ARTEK_AKFURNITURE_D2SNAP
 10
0.317778
 20
0.0176777
 30
0
  0
SEQEND
  0
POLYLINE
  8
72_ARTEK_AKFURNITURE_D2SNAP
 66
     1
 70
     0
 10
0.0
 20
0.0
 30
0.0
  0
VERTEX
  8
72_ARTEK_AKFURNITURE_D2SNAP
 10
0.282422
 20
0.0176777
 30
0
  0
VERTEX
  8
72_ARTEK_AKFURNITURE_D2SNAP
 10
0.317778
 20
-0.0176777
 30
0
  0
SEQEND
  0
POLYLINE
  8
72_ARTEK_AKFURNITURE_D2_CH_FOO
 66
     1
 70
     0
 10
0.0
 20
0.0
 30
0.0
  0
VERTEX
  8
72_ARTEK_AKFURNITURE_D2_CH_FOO
 10
0.587485
 20
0.189178
 30
0
  0
VERTEX
  8
72_ARTEK_AKFURNITURE_D2_CH_FOO
 10
0.58742
 20
0.189085
 30
0
  0
VERTEX
  8
72_ARTEK_AKFURNITURE_D2_CH_FOO
 10
0.587103
 20
0.188651
 30
0
  0
VERTEX
  8
72_ARTEK_AKFURNITURE_D2_CH_FOO
 10
0.586778
 20
0.18823
 30
0
  0
VERTEX
  8
72_ARTEK_AKFURNITURE_D2_CH_FOO
 10
0.586444
 20
0.187818
 30
0
  0
VERTEX
  8
72_ARTEK_AKFURNITURE_D2_CH_FOO
 10
0.586093
 20
0.187413
 30
0
  0
VERTEX
  8
72_ARTEK_AKFURNITURE_D2_CH_FOO
 10
0.585724
 20
0.187011
 30
0
  0
VERTEX
  8
72_ARTEK_AKFURNITURE_D2_CH_FOO
 10
0.58533
 20
0.18661
 30
0
  0
VERTEX
  8
72_ARTEK_AKFURNITURE_D2_CH_FOO
 10
0.584909
 20
0.186205
 30
0
  0
VERTEX
  8
72_ARTEK_AKFURNITURE_D2_CH_FOO
 10
0.584456
 20
0.185795
 30
0
  0
VERTEX
  8
72_ARTEK_AKFURNITURE_D2_CH_FOO
 10
0.583966
 20
0.185376
 30
0
  0
VERTEX
  8
72_ARTEK_AKFURNITURE_D2_CH_FOO
 10
0.583436
 20
0.184946
 30
0
  0
VERTEX
  8
72_ARTEK_AKFURNITURE_D2_CH_FOO
 10
0.58286
 20
0.1845
 30
0
  0
VERTEX
  8
72_ARTEK_AKFURNITURE_D2_CH_FOO
 10
0.582236
 20
0.184036
 30
0
  0
VERTEX
  8
72_ARTEK_AKFURNITURE_D2_CH_FOO
 10
0.581623
 20
0.183603
 30
0
  0
VERTEX
  8
72_ARTEK_AKFURNITURE_D2_CH_FOO
 10
0.581005
 20
0.183193
 30
0
  0
VERTEX
  8
72_ARTEK_AKFURNITURE_D2_CH_FOO
 10
0.58048
 20
0.182864
 30
0
  0
VERTEX
  8
72_ARTEK_AKFURNITURE_D2_CH_FOO
 10
0.581536
 20
0.180894
 30
0
  0
VERTEX
  8
72_ARTEK_AKFURNITURE_D2_CH_FOO
 10
0.582596
 20
0.17876
 30
0
  0
VERTEX
  8
72_ARTEK_AKFURNITURE_D2_CH_FOO
 10
0.583593
 20
0.176598
 30
0
  0
VERTEX
  8
72_ARTEK_AKFURNITURE_D2_CH_FOO
 10
0.58453
 20
0.174409
 30
0
  0
VERTEX
  8
72_ARTEK_AKFURNITURE_D2_CH_FOO
 10
0.585409
 20
0.172197
 30
0
  0
VERTEX
  8
72_ARTEK_AKFURNITURE_D2_CH_FOO
 10
0.586233
 20
0.169961
 30
0
  0
VERTEX
  8
72_ARTEK_AKFURNITURE_D2_CH_FOO
 10
0.587006
 20
0.167706
 30
0
  0
VERTEX
  8
72_ARTEK_AKFURNITURE_D2_CH_FOO
 10
0.58773
 20
0.165432
 30
0
  0
VERTEX
  8
72_ARTEK_AKFURNITURE_D2_CH_FOO
 10
0.588408
 20
0.163141
 30
0
  0
VERTEX
  8
72_ARTEK_AKFURNITURE_D2_CH_FOO
 10
0.589044
 20
0.160836
 30
0
  0
VERTEX
  8
72_ARTEK_AKFURNITURE_D2_CH_FOO
 10
0.589639
 20
0.158518
 30
0
  0
VERTEX
  8
72_ARTEK_AKFURNITURE_D2_CH_FOO
 10
0.590198
 20
0.15619
 30
0
  0
VERTEX
  8
72_ARTEK_AKFURNITURE_D2_CH_FOO
 10
0.590723
 20
0.153853
 30
0
  0
VERTEX
  8
72_ARTEK_AKFURNITURE_D2_CH_FOO
 10
0.5911
 20
0.152068
 30
0
  0
VERTEX
  8
72_ARTEK_AKFURNITURE_D2_CH_FOO
 10
0.591092
 20
0.178318
 30
0
  0
VERTEX
  8
72_ARTEK_AKFURNITURE_D2_CH_FOO
 10
0.59109
 20
0.178909
 30
0
  0
VERTEX
  8
72_ARTEK_AKFURNITURE_D2_CH_FOO
 10
0.591088
 20
0.179509
 30
0
  0
VERTEX
  8
72_ARTEK_AKFURNITURE_D2_CH_FOO
 10
0.591082
 20
0.180117
 30
0
  0
VERTEX
  8
72_ARTEK_AKFURNITURE_D2_CH_FOO
 10
0.59107
 20
0.180729
 30
0
  0
VERTEX
  8
72_ARTEK_AKFURNITURE_D2_CH_FOO
 10
0.591047
 20
0.181344
 30
0
  0
VERTEX
  8
72_ARTEK_AKFURNITURE_D2_CH_FOO
 10
0.591012
 20
0.181959
 30
0
  0
VERTEX
  8
72_ARTEK_AKFURNITURE_D2_CH_FOO
 10
0.59096
 20
0.182571
 30
0
  0
VERTEX
  8
72_ARTEK_AKFURNITURE_D2_CH_FOO
 10
0.59089
 20
0.183178
 30
0
  0
VERTEX
  8
72_ARTEK_AKFURNITURE_D2_CH_FOO
 10
0.590797
 20
0.183778
 30
0
  0
VERTEX
  8
72_ARTEK_AKFURNITURE_D2_CH_FOO
 10
0.59068
 20
0.184368
 30
0
  0
VERTEX
  8
72_ARTEK_AKFURNITURE_D2_CH_FOO
 10
0.590534
 20
0.184947
 30
0
  0
VERTEX
  8
72_ARTEK_AKFURNITURE_D2_CH_FOO
 10
0.590356
 20
0.18551
 30
0
  0
VERTEX
  8
72_ARTEK_AKFURNITURE_D2_CH_FOO
 10
0.590144
 20
0.186057
 30
0
  0
VERTEX
  8
72_ARTEK_AKFURNITURE_D2_CH_FOO
 10
0.589894
 20
0.186585
 30
0
  0
VERTEX
  8
72_ARTEK_AKFURNITURE_D2_CH_FOO
 10
0.589604
 20
0.187091
 30
0
  0
VERTEX
  8
72_ARTEK_AKFURNITURE_D2_CH_FOO
 10
0.58927
 20
0.187573
 30
0
  0
VERTEX
  8
72_ARTEK_AKFURNITURE_D2_CH_FOO
 10
0.58889
 20
0.188028
 30
0
  0
VERTEX
  8
72_ARTEK_AKFURNITURE_D2_CH_FOO
 10
0.588459
 20
0.188455
 30
0
  0
VERTEX
  8
72_ARTEK_AKFURNITURE_D2_CH_FOO
 10
0.587975
 20
0.18885
 30
0
  0
VERTEX
  8
72_ARTEK_AKFURNITURE_D2_CH_FOO
 10
0.587485
 20
0.189178
 30
0
  0
SEQEND
  0
POLYLINE
  8
72_ARTEK_AKFURNITURE_D2_CH_FOO
 66
     1
 70
     0
 10
0.0
 20
0.0
 30
0.0
  0
VERTEX
  8
72_ARTEK_AKFURNITURE_D2_CH_FOO
 10
0.0127148
 20
0.189178
 30
0
  0
VERTEX
  8
72_ARTEK_AKFURNITURE_D2_CH_FOO
 10
0.0127804
 20
0.189085
 30
0
  0
VERTEX
  8
72_ARTEK_AKFURNITURE_D2_CH_FOO
 10
0.0130974
 20
0.188651
 30
0
  0
VERTEX
  8
72_ARTEK_AKFURNITURE_D2_CH_FOO
 10
0.0134215
 20
0.18823
 30
0
  0
VERTEX
  8
72_ARTEK_AKFURNITURE_D2_CH_FOO
 10
0.0137563
 20
0.187818
 30
0
  0
VERTEX
  8
72_ARTEK_AKFURNITURE_D2_CH_FOO
 10
0.0141067
 20
0.187413
 30
0
  0
VERTEX
  8
72_ARTEK_AKFURNITURE_D2_CH_FOO
 10
0.0144762
 20
0.187011
 30
0
  0
VERTEX
  8
72_ARTEK_AKFURNITURE_D2_CH_FOO
 10
0.0148696
 20
0.18661
 30
0
  0
VERTEX
  8
72_ARTEK_AKFURNITURE_D2_CH_FOO
 10
0.0152907
 20
0.186205
 30
0
  0
VERTEX
  8
72_ARTEK_AKFURNITURE_D2_CH_FOO
 10
0.0157442
 20
0.185795
 30
0
  0
VERTEX
  8
72_ARTEK_AKFURNITURE_D2_CH_FOO
 10
0.016234
 20
0.185376
 30
0
  0
VERTEX
  8
72_ARTEK_AKFURNITURE_D2_CH_FOO
 10
0.0167644
 20
0.184946
 30
0
  0
VERTEX
  8
72_ARTEK_AKFURNITURE_D2_CH_FOO
 10
0.0173397
 20
0.1845
 30
0
  0
VERTEX
  8
72_ARTEK_AKFURNITURE_D2_CH_FOO
 10
0.0179641
 20
0.184036
 30
0
  0
VERTEX
  8
72_ARTEK_AKFURNITURE_D2_CH_FOO
 10
0.0185769
 20
0.183603
 30
0
  0
VERTEX
  8
72_ARTEK_AKFURNITURE_D2_CH_FOO
 10
0.0191945
 20
0.183193
 30
0
  0
VERTEX
  8
72_ARTEK_AKFURNITURE_D2_CH_FOO
 10
0.0197199
 20
0.182864
 30
0
  0
VERTEX
  8
72_ARTEK_AKFURNITURE_D2_CH_FOO
 10
0.0186642
 20
0.180894
 30
0
  0
VERTEX
  8
72_ARTEK_AKFURNITURE_D2_CH_FOO
 10
0.0176037
 20
0.17876
 30
0
  0
VERTEX
  8
72_ARTEK_AKFURNITURE_D2_CH_FOO
 10
0.0166067
 20
0.176598
 30
0
  0
VERTEX
  8
72_ARTEK_AKFURNITURE_D2_CH_FOO
 10
0.0156701
 20
0.174409
 30
0
  0
VERTEX
  8
72_ARTEK_AKFURNITURE_D2_CH_FOO
 10
0.0147912
 20
0.172197
 30
0
  0
VERTEX
  8
72_ARTEK_AKFURNITURE_D2_CH_FOO
 10
0.0139669
 20
0.169961
 30
0
  0
VERTEX
  8
72_ARTEK_AKFURNITURE_D2_CH_FOO
 10
0.0131942
 20
0.167706
 30
0
  0
VERTEX
  8
72_ARTEK_AKFURNITURE_D2_CH_FOO
 10
0.01247
 20
0.165432
 30
0
  0
VERTEX
  8
72_ARTEK_AKFURNITURE_D2_CH_FOO
 10
0.0117919
 20
0.163141
 30
0
  0
VERTEX
  8
72_ARTEK_AKFURNITURE_D2_CH_FOO
 10
0.0111562
 20
0.160836
 30
0
  0
VERTEX
  8
72_ARTEK_AKFURNITURE_D2_CH_FOO
 10
0.0105605
 20
0.158518
 30
0
  0
VERTEX
  8
72_ARTEK_AKFURNITURE_D2_CH_FOO
 10
0.0100017
 20
0.15619
 30
0
  0
VERTEX
  8
72_ARTEK_AKFURNITURE_D2_CH_FOO
 10
0.00947652
 20
0.153853
 30
0
  0
VERTEX
  8
72_ARTEK_AKFURNITURE_D2_CH_FOO
 10
0.00910008
 20
0.152068
 30
0
  0
VERTEX
  8
72_ARTEK_AKFURNITURE_D2_CH_FOO
 10
0.00910848
 20
0.178318
 30
0
  0
VERTEX
  8
72_ARTEK_AKFURNITURE_D2_CH_FOO
 10
0.00911001
 20
0.178909
 30
0
  0
VERTEX
  8
72_ARTEK_AKFURNITURE_D2_CH_FOO
 10
0.00911214
 20
0.179509
 30
0
  0
VERTEX
  8
72_ARTEK_AKFURNITURE_D2_CH_FOO
 10
0.00911794
 20
0.180117
 30
0
  0
VERTEX
  8
72_ARTEK_AKFURNITURE_D2_CH_FOO
 10
0.00913045
 20
0.180729
 30
0
  0
VERTEX
  8
72_ARTEK_AKFURNITURE_D2_CH_FOO
 10
0.00915304
 20
0.181344
 30
0
  0
VERTEX
  8
72_ARTEK_AKFURNITURE_D2_CH_FOO
 10
0.00918813
 20
0.181959
 30
0
  0
VERTEX
  8
72_ARTEK_AKFURNITURE_D2_CH_FOO
 10
0.00923971
 20
0.182571
 30
0
  0
VERTEX
  8
72_ARTEK_AKFURNITURE_D2_CH_FOO
 10
0.0093099
 20
0.183178
 30
0
  0
VERTEX
  8
72_ARTEK_AKFURNITURE_D2_CH_FOO
 10
0.00940267
 20
0.183778
 30
0
  0
VERTEX
  8
72_ARTEK_AKFURNITURE_D2_CH_FOO
 10
0.00952047
 20
0.184368
 30
0
  0
VERTEX
  8
72_ARTEK_AKFURNITURE_D2_CH_FOO
 10
0.00966634
 20
0.184947
 30
0
  0
VERTEX
  8
72_ARTEK_AKFURNITURE_D2_CH_FOO
 10
0.00984396
 20
0.18551
 30
0
  0
VERTEX
  8
72_ARTEK_AKFURNITURE_D2_CH_FOO
 10
0.0100561
 20
0.186057
 30
0
  0
VERTEX
  8
72_ARTEK_AKFURNITURE_D2_CH_FOO
 10
0.0103057
 20
0.186585
 30
0
  0
VERTEX
  8
72_ARTEK_AKFURNITURE_D2_CH_FOO
 10
0.0105959
 20
0.187091
 30
0
  0
VERTEX
  8
72_ARTEK_AKFURNITURE_D2_CH_FOO
 10
0.0109298
 20
0.187573
 30
0
  0
VERTEX
  8
72_ARTEK_AKFURNITURE_D2_CH_FOO
 10
0.0113103
 20
0.188028
 30
0
  0
VERTEX
  8
72_ARTEK_AKFURNITURE_D2_CH_FOO
 10
0.0117409
 20
0.188455
 30
0
  0
VERTEX
  8
72_ARTEK_AKFURNITURE_D2_CH_FOO
 10
0.0122246
 20
0.18885
 30
0
  0
VERTEX
  8
72_ARTEK_AKFURNITURE_D2_CH_FOO
 10
0.0127148
 20
0.189178
 30
0
  0
SEQEND
  0
POLYLINE
  8
72_ARTEK_AKFURNITURE_D2SNAP
 66
     1
 70
     0
 10
0.0
 20
0.0
 30
0.0
  0
VERTEX
  8
72_ARTEK_AKFURNITURE_D2SNAP
 10
0.3126
 20
-0
 30
0
  0
VERTEX
  8
72_ARTEK_AKFURNITURE_D2SNAP
 10
0.31236
 20
0.00243863
 30
0
  0
VERTEX
  8
72_ARTEK_AKFURNITURE_D2SNAP
 10
0.311648
 20
0.00478354
 30
0
  0
VERTEX
  8
72_ARTEK_AKFURNITURE_D2SNAP
 10
0.310493
 20
0.00694463
 30
0
  0
VERTEX
  8
72_ARTEK_AKFURNITURE_D2SNAP
 10
0.308939
 20
0.00883883
 30
0
  0
VERTEX
  8
72_ARTEK_AKFURNITURE_D2SNAP
 10
0.307045
 20
0.0103934
 30
0
  0
VERTEX
  8
72_ARTEK_AKFURNITURE_D2SNAP
 10
0.304884
 20
0.0115485
 30
0
  0
VERTEX
  8
72_ARTEK_AKFURNITURE_D2SNAP
 10
0.302539
 20
0.0122598
 30
0
  0
VERTEX
  8
72_ARTEK_AKFURNITURE_D2SNAP
 10
0.3001
 20
0.0125
 30
0
  0
VERTEX
  8
72_ARTEK_AKFURNITURE_D2SNAP
 10
0.297661
 20
0.0122598
 30
0
  0
VERTEX
  8
72_ARTEK_AKFURNITURE_D2SNAP
 10
0.295316
 20
0.0115485
 30
0
  0
VERTEX
  8
72_ARTEK_AKFURNITURE_D2SNAP
 10
0.293155
 20
0.0103934
 30
0
  0
VERTEX
  8
72_ARTEK_AKFURNITURE_D2SNAP
 10
0.291261
 20
0.00883883
 30
0
  0
VERTEX
  8
72_ARTEK_AKFURNITURE_D2SNAP
 10
0.289707
 20
0.00694463
 30
0
  0
VERTEX
  8
72_ARTEK_AKFURNITURE_D2SNAP
 10
0.288552
 20
0.00478354
 30
0
  0
VERTEX
  8
72_ARTEK_AKFURNITURE_D2SNAP
 10
0.28784
 20
0.00243863
 30
0
  0
VERTEX
  8
72_ARTEK_AKFURNITURE_D2SNAP
 10
0.2876
 20
3.15316e-018
 30
0
  0
VERTEX
  8
72_ARTEK_AKFURNITURE_D2SNAP
 10
0.28784
 20
-0.00243863
 30
0
  0
VERTEX
  8
72_ARTEK_AKFURNITURE_D2SNAP
 10
0.288552
 20
-0.00478354
 30
0
  0
VERTEX
  8
72_ARTEK_AKFURNITURE_D2SNAP
 10
0.289707
 20
-0.00694463
 30
0
  0
VERTEX
  8
72_ARTEK_AKFURNITURE_D2SNAP
 10
0.291261
 20
-0.00883883
 30
0
  0
VERTEX
  8
72_ARTEK_AKFURNITURE_D2SNAP
 10
0.293155
 20
-0.0103934
 30
0
  0
VERTEX
  8
72_ARTEK_AKFURNITURE_D2SNAP
 10
0.295316
 20
-0.0115485
 30
0
  0
VERTEX
  8
72_ARTEK_AKFURNITURE_D2SNAP
 10
0.297661
 20
-0.0122598
 30
0
  0
VERTEX
  8
72_ARTEK_AKFURNITURE_D2SNAP
 10
0.3001
 20
-0.0125
 30
0
  0
VERTEX
  8
72_ARTEK_AKFURNITURE_D2SNAP
 10
0.302539
 20
-0.0122598
 30
0
  0
VERTEX
  8
72_ARTEK_AKFURNITURE_D2SNAP
 10
0.304884
 20
-0.0115485
 30
0
  0
VERTEX
  8
72_ARTEK_AKFURNITURE_D2SNAP
 10
0.307045
 20
-0.0103934
 30
0
  0
VERTEX
  8
72_ARTEK_AKFURNITURE_D2SNAP
 10
0.308939
 20
-0.00883883
 30
0
  0
VERTEX
  8
72_ARTEK_AKFURNITURE_D2SNAP
 10
0.310493
 20
-0.00694463
 30
0
  0
VERTEX
  8
72_ARTEK_AKFURNITURE_D2SNAP
 10
0.311648
 20
-0.00478354
 30
0
  0
VERTEX
  8
72_ARTEK_AKFURNITURE_D2SNAP
 10
0.31236
 20
-0.00243863
 30
0
  0
VERTEX
  8
72_ARTEK_AKFURNITURE_D2SNAP
 10
0.3126
 20
-0
 30
0
  0
SEQEND
  0
POLYLINE
  8
72_ARTEK_AKFURNITURE_D2SNAP
 66
     1
 70
     0
 10
0.0
 20
0.0
 30
0.0
  0
VERTEX
  8
72_ARTEK_AKFURNITURE_D2SNAP
 10
0.282422
 20
-0.0176777
 30
0
  0
VERTEX
  8
72_ARTEK_AKFURNITURE_D2SNAP
 10
0.317778
 20
0.0176777
 30
0
  0
SEQEND
  0
POLYLINE
  8
72_ARTEK_AKFURNITURE_D2SNAP
 66
     1
 70
     0
 10
0.0
 20
0.0
 30
0.0
  0
VERTEX
  8
72_ARTEK_AKFURNITURE_D2SNAP
 10
0.282422
 20
0.0176777
 30
0
  0
VERTEX
  8
72_ARTEK_AKFURNITURE_D2SNAP
 10
0.317778
 20
-0.0176777
 30
0
  0
SEQEND
  0
POLYLINE
  8
72_ARTEK_AKFURNITURE_D2_CH_000
 66
     1
 70
     0
 10
0.0
 20
0.0
 30
0.0
  0
VERTEX
  8
72_ARTEK_AKFURNITURE_D2_CH_000
 10
0.531106
 20
-0.243771
 30
0
  0
VERTEX
  8
72_ARTEK_AKFURNITURE_D2_CH_000
 10
0.531101
 20
-0.244077
 30
0
  0
VERTEX
  8
72_ARTEK_AKFURNITURE_D2_CH_000
 10
0.531112
 20
-0.263396
 30
0
  0
VERTEX
  8
72_ARTEK_AKFURNITURE_D2_CH_000
 10
0.531101
 20
-0.282716
 30
0
  0
VERTEX
  8
72_ARTEK_AKFURNITURE_D2_CH_000
 10
0.531106
 20
-0.283021
 30
0
  0
VERTEX
  8
72_ARTEK_AKFURNITURE_D2_CH_000
 10
0.53111
 20
-0.283343
 30
0
  0
VERTEX
  8
72_ARTEK_AKFURNITURE_D2_CH_000
 10
0.531112
 20
-0.28368
 30
0
  0
VERTEX
  8
72_ARTEK_AKFURNITURE_D2_CH_000
 10
0.531114
 20
-0.284029
 30
0
  0
VERTEX
  8
72_ARTEK_AKFURNITURE_D2_CH_000
 10
0.531118
 20
-0.284389
 30
0
  0
VERTEX
  8
72_ARTEK_AKFURNITURE_D2_CH_000
 10
0.531123
 20
-0.284759
 30
0
  0
VERTEX
  8
72_ARTEK_AKFURNITURE_D2_CH_000
 10
0.53113
 20
-0.285135
 30
0
  0
VERTEX
  8
72_ARTEK_AKFURNITURE_D2_CH_000
 10
0.53114
 20
-0.285516
 30
0
  0
VERTEX
  8
72_ARTEK_AKFURNITURE_D2_CH_000
 10
0.531154
 20
-0.2859
 30
0
  0
VERTEX
  8
72_ARTEK_AKFURNITURE_D2_CH_000
 10
0.531173
 20
-0.286286
 30
0
  0
VERTEX
  8
72_ARTEK_AKFURNITURE_D2_CH_000
 10
0.531197
 20
-0.286672
 30
0
  0
VERTEX
  8
72_ARTEK_AKFURNITURE_D2_CH_000
 10
0.531227
 20
-0.287055
 30
0
  0
VERTEX
  8
72_ARTEK_AKFURNITURE_D2_CH_000
 10
0.531264
 20
-0.287433
 30
0
  0
VERTEX
  8
72_ARTEK_AKFURNITURE_D2_CH_000
 10
0.531309
 20
-0.287806
 30
0
  0
VERTEX
  8
72_ARTEK_AKFURNITURE_D2_CH_000
 10
0.531363
 20
-0.28817
 30
0
  0
VERTEX
  8
72_ARTEK_AKFURNITURE_D2_CH_000
 10
0.531426
 20
-0.288525
 30
0
  0
VERTEX
  8
72_ARTEK_AKFURNITURE_D2_CH_000
 10
0.531499
 20
-0.288868
 30
0
  0
VERTEX
  8
72_ARTEK_AKFURNITURE_D2_CH_000
 10
0.531583
 20
-0.289197
 30
0
  0
VERTEX
  8
72_ARTEK_AKFURNITURE_D2_CH_000
 10
0.531679
 20
-0.28951
 30
0
  0
VERTEX
  8
72_ARTEK_AKFURNITURE_D2_CH_000
 10
0.531787
 20
-0.289807
 30
0
  0
VERTEX
  8
72_ARTEK_AKFURNITURE_D2_CH_000
 10
0.532286
 20
-0.290841
 30
0
  0
VERTEX
  8
72_ARTEK_AKFURNITURE_D2_CH_000
 10
0.532898
 20
-0.29175
 30
0
  0
VERTEX
  8
72_ARTEK_AKFURNITURE_D2_CH_000
 10
0.533613
 20
-0.292541
 30
0
  0
VERTEX
  8
72_ARTEK_AKFURNITURE_D2_CH_000
 10
0.53442
 20
-0.293221
 30
0
  0
VERTEX
  8
72_ARTEK_AKFURNITURE_D2_CH_000
 10
0.535308
 20
-0.293799
 30
0
  0
VERTEX
  8
72_ARTEK_AKFURNITURE_D2_CH_000
 10
0.536269
 20
-0.294283
 30
0
  0
VERTEX
  8
72_ARTEK_AKFURNITURE_D2_CH_000
 10
0.537291
 20
-0.294681
 30
0
  0
VERTEX
  8
72_ARTEK_AKFURNITURE_D2_CH_000
 10
0.538364
 20
-0.295001
 30
0
  0
VERTEX
  8
72_ARTEK_AKFURNITURE_D2_CH_000
 10
0.539478
 20
-0.29525
 30
0
  0
VERTEX
  8
72_ARTEK_AKFURNITURE_D2_CH_000
 10
0.540623
 20
-0.295438
 30
0
  0
VERTEX
  8
72_ARTEK_AKFURNITURE_D2_CH_000
 10
0.541789
 20
-0.295571
 30
0
  0
VERTEX
  8
72_ARTEK_AKFURNITURE_D2_CH_000
 10
0.542964
 20
-0.295659
 30
0
  0
VERTEX
  8
72_ARTEK_AKFURNITURE_D2_CH_000
 10
0.544139
 20
-0.295709
 30
0
  0
VERTEX
  8
72_ARTEK_AKFURNITURE_D2_CH_000
 10
0.545305
 20
-0.295728
 30
0
  0
VERTEX
  8
72_ARTEK_AKFURNITURE_D2_CH_000
 10
0.546101
 20
-0.295727
 30
0
  0
VERTEX
  8
72_ARTEK_AKFURNITURE_D2_CH_000
 10
0.546897
 20
-0.295728
 30
0
  0
VERTEX
  8
72_ARTEK_AKFURNITURE_D2_CH_000
 10
0.548062
 20
-0.295709
 30
0
  0
VERTEX
  8
72_ARTEK_AKFURNITURE_D2_CH_000
 10
0.549237
 20
-0.295659
 30
0
  0
VERTEX
  8
72_ARTEK_AKFURNITURE_D2_CH_000
 10
0.550413
 20
-0.295571
 30
0
  0
VERTEX
  8
72_ARTEK_AKFURNITURE_D2_CH_000
 10
0.551578
 20
-0.295438
 30
0
  0
VERTEX
  8
72_ARTEK_AKFURNITURE_D2_CH_000
 10
0.552723
 20
-0.29525
 30
0
  0
VERTEX
  8
72_ARTEK_AKFURNITURE_D2_CH_000
 10
0.553837
 20
-0.295001
 30
0
  0
VERTEX
  8
72_ARTEK_AKFURNITURE_D2_CH_000
 10
0.55491
 20
-0.294681
 30
0
  0
VERTEX
  8
72_ARTEK_AKFURNITURE_D2_CH_000
 10
0.555933
 20
-0.294283
 30
0
  0
VERTEX
  8
72_ARTEK_AKFURNITURE_D2_CH_000
 10
0.556893
 20
-0.293799
 30
0
  0
VERTEX
  8
72_ARTEK_AKFURNITURE_D2_CH_000
 10
0.557782
 20
-0.293221
 30
0
  0
VERTEX
  8
72_ARTEK_AKFURNITURE_D2_CH_000
 10
0.558589
 20
-0.292541
 30
0
  0
VERTEX
  8
72_ARTEK_AKFURNITURE_D2_CH_000
 10
0.559303
 20
-0.29175
 30
0
  0
VERTEX
  8
72_ARTEK_AKFURNITURE_D2_CH_000
 10
0.559915
 20
-0.290841
 30
0
  0
VERTEX
  8
72_ARTEK_AKFURNITURE_D2_CH_000
 10
0.560415
 20
-0.289807
 30
0
  0
VERTEX
  8
72_ARTEK_AKFURNITURE_D2_CH_000
 10
0.560523
 20
-0.28951
 30
0
  0
VERTEX
  8
72_ARTEK_AKFURNITURE_D2_CH_000
 10
0.560618
 20
-0.289197
 30
0
  0
VERTEX
  8
72_ARTEK_AKFURNITURE_D2_CH_000
 10
0.560702
 20
-0.288868
 30
0
  0
VERTEX
  8
72_ARTEK_AKFURNITURE_D2_CH_000
 10
0.560775
 20
-0.288525
 30
0
  0
VERTEX
  8
72_ARTEK_AKFURNITURE_D2_CH_000
 10
0.560838
 20
-0.28817
 30
0
  0
VERTEX
  8
72_ARTEK_AKFURNITURE_D2_CH_000
 10
0.560892
 20
-0.287806
 30
0
  0
VERTEX
  8
72_ARTEK_AKFURNITURE_D2_CH_000
 10
0.560937
 20
-0.287433
 30
0
  0
VERTEX
  8
72_ARTEK_AKFURNITURE_D2_CH_000
 10
0.560974
 20
-0.287055
 30
0
  0
VERTEX
  8
72_ARTEK_AKFURNITURE_D2_CH_000
 10
0.561005
 20
-0.286672
 30
0
  0
VERTEX
  8
72_ARTEK_AKFURNITURE_D2_CH_000
 10
0.561029
 20
-0.286286
 30
0
  0
VERTEX
  8
72_ARTEK_AKFURNITURE_D2_CH_000
 10
0.561048
 20
-0.2859
 30
0
  0
VERTEX
  8
72_ARTEK_AKFURNITURE_D2_CH_000
 10
0.561062
 20
-0.285516
 30
0
  0
VERTEX
  8
72_ARTEK_AKFURNITURE_D2_CH_000
 10
0.561072
 20
-0.285135
 30
0
  0
VERTEX
  8
72_ARTEK_AKFURNITURE_D2_CH_000
 10
0.561079
 20
-0.284759
 30
0
  0
VERTEX
  8
72_ARTEK_AKFURNITURE_D2_CH_000
 10
0.561084
 20
-0.284389
 30
0
  0
VERTEX
  8
72_ARTEK_AKFURNITURE_D2_CH_000
 10
0.561087
 20
-0.284029
 30
0
  0
VERTEX
  8
72_ARTEK_AKFURNITURE_D2_CH_000
 10
0.561089
 20
-0.28368
 30
0
  0
VERTEX
  8
72_ARTEK_AKFURNITURE_D2_CH_000
 10
0.561092
 20
-0.283343
 30
0
  0
VERTEX
  8
72_ARTEK_AKFURNITURE_D2_CH_000
 10
0.561095
 20
-0.283021
 30
0
  0
VERTEX
  8
72_ARTEK_AKFURNITURE_D2_CH_000
 10
0.5611
 20
-0.282716
 30
0
  0
VERTEX
  8
72_ARTEK_AKFURNITURE_D2_CH_000
 10
0.561089
 20
-0.263396
 30
0
  0
VERTEX
  8
72_ARTEK_AKFURNITURE_D2_CH_000
 10
0.5611
 20
-0.244077
 30
0
  0
VERTEX
  8
72_ARTEK_AKFURNITURE_D2_CH_000
 10
0.561095
 20
-0.243771
 30
0
  0
VERTEX
  8
72_ARTEK_AKFURNITURE_D2_CH_000
 10
0.561092
 20
-0.243449
 30
0
  0
VERTEX
  8
72_ARTEK_AKFURNITURE_D2_CH_000
 10
0.561089
 20
-0.243112
 30
0
  0
VERTEX
  8
72_ARTEK_AKFURNITURE_D2_CH_000
 10
0.561087
 20
-0.242763
 30
0
  0
VERTEX
  8
72_ARTEK_AKFURNITURE_D2_CH_000
 10
0.561084
 20
-0.242403
 30
0
  0
VERTEX
  8
72_ARTEK_AKFURNITURE_D2_CH_000
 10
0.561079
 20
-0.242033
 30
0
  0
VERTEX
  8
72_ARTEK_AKFURNITURE_D2_CH_000
 10
0.561072
 20
-0.241657
 30
0
  0
VERTEX
  8
72_ARTEK_AKFURNITURE_D2_CH_000
 10
0.561062
 20
-0.241276
 30
0
  0
VERTEX
  8
72_ARTEK_AKFURNITURE_D2_CH_000
 10
0.561048
 20
-0.240892
 30
0
  0
VERTEX
  8
72_ARTEK_AKFURNITURE_D2_CH_000
 10
0.561029
 20
-0.240506
 30
0
  0
VERTEX
  8
72_ARTEK_AKFURNITURE_D2_CH_000
 10
0.561005
 20
-0.240121
 30
0
  0
VERTEX
  8
72_ARTEK_AKFURNITURE_D2_CH_000
 10
0.560974
 20
-0.239738
 30
0
  0
VERTEX
  8
72_ARTEK_AKFURNITURE_D2_CH_000
 10
0.560937
 20
-0.239359
 30
0
  0
VERTEX
  8
72_ARTEK_AKFURNITURE_D2_CH_000
 10
0.560892
 20
-0.238987
 30
0
  0
VERTEX
  8
72_ARTEK_AKFURNITURE_D2_CH_000
 10
0.560838
 20
-0.238622
 30
0
  0
VERTEX
  8
72_ARTEK_AKFURNITURE_D2_CH_000
 10
0.560775
 20
-0.238267
 30
0
  0
VERTEX
  8
72_ARTEK_AKFURNITURE_D2_CH_000
 10
0.560702
 20
-0.237925
 30
0
  0
VERTEX
  8
72_ARTEK_AKFURNITURE_D2_CH_000
 10
0.560618
 20
-0.237595
 30
0
  0
VERTEX
  8
72_ARTEK_AKFURNITURE_D2_CH_000
 10
0.560523
 20
-0.237282
 30
0
  0
VERTEX
  8
72_ARTEK_AKFURNITURE_D2_CH_000
 10
0.560415
 20
-0.236986
 30
0
  0
VERTEX
  8
72_ARTEK_AKFURNITURE_D2_CH_000
 10
0.559915
 20
-0.235951
 30
0
  0
VERTEX
  8
72_ARTEK_AKFURNITURE_D2_CH_000
 10
0.559303
 20
-0.235042
 30
0
  0
VERTEX
  8
72_ARTEK_AKFURNITURE_D2_CH_000
 10
0.558589
 20
-0.234251
 30
0
  0
VERTEX
  8
72_ARTEK_AKFURNITURE_D2_CH_000
 10
0.557782
 20
-0.233571
 30
0
  0
VERTEX
  8
72_ARTEK_AKFURNITURE_D2_CH_000
 10
0.556893
 20
-0.232993
 30
0
  0
VERTEX
  8
72_ARTEK_AKFURNITURE_D2_CH_000
 10
0.555933
 20
-0.232509
 30
0
  0
VERTEX
  8
72_ARTEK_AKFURNITURE_D2_CH_000
 10
0.55491
 20
-0.232111
 30
0
  0
VERTEX
  8
72_ARTEK_AKFURNITURE_D2_CH_000
 10
0.553837
 20
-0.231791
 30
0
  0
VERTEX
  8
72_ARTEK_AKFURNITURE_D2_CH_000
 10
0.552723
 20
-0.231542
 30
0
  0
VERTEX
  8
72_ARTEK_AKFURNITURE_D2_CH_000
 10
0.551578
 20
-0.231354
 30
0
  0
VERTEX
  8
72_ARTEK_AKFURNITURE_D2_CH_000
 10
0.550413
 20
-0.231221
 30
0
  0
VERTEX
  8
72_ARTEK_AKFURNITURE_D2_CH_000
 10
0.549237
 20
-0.231133
 30
0
  0
VERTEX
  8
72_ARTEK_AKFURNITURE_D2_CH_000
 10
0.548062
 20
-0.231083
 30
0
  0
VERTEX
  8
72_ARTEK_AKFURNITURE_D2_CH_000
 10
0.546897
 20
-0.231064
 30
0
  0
VERTEX
  8
72_ARTEK_AKFURNITURE_D2_CH_000
 10
0.546101
 20
-0.231066
 30
0
  0
VERTEX
  8
72_ARTEK_AKFURNITURE_D2_CH_000
 10
0.545305
 20
-0.231064
 30
0
  0
VERTEX
  8
72_ARTEK_AKFURNITURE_D2_CH_000
 10
0.544139
 20
-0.231083
 30
0
  0
VERTEX
  8
72_ARTEK_AKFURNITURE_D2_CH_000
 10
0.542964
 20
-0.231133
 30
0
  0
VERTEX
  8
72_ARTEK_AKFURNITURE_D2_CH_000
 10
0.541789
 20
-0.231221
 30
0
  0
VERTEX
  8
72_ARTEK_AKFURNITURE_D2_CH_000
 10
0.540623
 20
-0.231354
 30
0
  0
VERTEX
  8
72_ARTEK_AKFURNITURE_D2_CH_000
 10
0.539478
 20
-0.231542
 30
0
  0
VERTEX
  8
72_ARTEK_AKFURNITURE_D2_CH_000
 10
0.538364
 20
-0.231791
 30
0
  0
VERTEX
  8
72_ARTEK_AKFURNITURE_D2_CH_000
 10
0.537291
 20
-0.232111
 30
0
  0
VERTEX
  8
72_ARTEK_AKFURNITURE_D2_CH_000
 10
0.536269
 20
-0.232509
 30
0
  0
VERTEX
  8
72_ARTEK_AKFURNITURE_D2_CH_000
 10
0.535308
 20
-0.232993
 30
0
  0
VERTEX
  8
72_ARTEK_AKFURNITURE_D2_CH_000
 10
0.53442
 20
-0.233571
 30
0
  0
VERTEX
  8
72_ARTEK_AKFURNITURE_D2_CH_000
 10
0.533613
 20
-0.234251
 30
0
  0
VERTEX
  8
72_ARTEK_AKFURNITURE_D2_CH_000
 10
0.532898
 20
-0.235042
 30
0
  0
VERTEX
  8
72_ARTEK_AKFURNITURE_D2_CH_000
 10
0.532286
 20
-0.235951
 30
0
  0
VERTEX
  8
72_ARTEK_AKFURNITURE_D2_CH_000
 10
0.531787
 20
-0.236986
 30
0
  0
VERTEX
  8
72_ARTEK_AKFURNITURE_D2_CH_000
 10
0.531679
 20
-0.237282
 30
0
  0
VERTEX
  8
72_ARTEK_AKFURNITURE_D2_CH_000
 10
0.531583
 20
-0.237595
 30
0
  0
VERTEX
  8
72_ARTEK_AKFURNITURE_D2_CH_000
 10
0.531499
 20
-0.237925
 30
0
  0
VERTEX
  8
72_ARTEK_AKFURNITURE_D2_CH_000
 10
0.531426
 20
-0.238267
 30
0
  0
VERTEX
  8
72_ARTEK_AKFURNITURE_D2_CH_000
 10
0.531363
 20
-0.238622
 30
0
  0
VERTEX
  8
72_ARTEK_AKFURNITURE_D2_CH_000
 10
0.531309
 20
-0.238987
 30
0
  0
VERTEX
  8
72_ARTEK_AKFURNITURE_D2_CH_000
 10
0.531264
 20
-0.239359
 30
0
  0
VERTEX
  8
72_ARTEK_AKFURNITURE_D2_CH_000
 10
0.531227
 20
-0.239738
 30
0
  0
VERTEX
  8
72_ARTEK_AKFURNITURE_D2_CH_000
 10
0.531197
 20
-0.240121
 30
0
  0
VERTEX
  8
72_ARTEK_AKFURNITURE_D2_CH_000
 10
0.531173
 20
-0.240506
 30
0
  0
VERTEX
  8
72_ARTEK_AKFURNITURE_D2_CH_000
 10
0.531154
 20
-0.240892
 30
0
  0
VERTEX
  8
72_ARTEK_AKFURNITURE_D2_CH_000
 10
0.53114
 20
-0.241276
 30
0
  0
VERTEX
  8
72_ARTEK_AKFURNITURE_D2_CH_000
 10
0.53113
 20
-0.241657
 30
0
  0
VERTEX
  8
72_ARTEK_AKFURNITURE_D2_CH_000
 10
0.531123
 20
-0.242033
 30
0
  0
VERTEX
  8
72_ARTEK_AKFURNITURE_D2_CH_000
 10
0.531118
 20
-0.242403
 30
0
  0
VERTEX
  8
72_ARTEK_AKFURNITURE_D2_CH_000
 10
0.531114
 20
-0.242763
 30
0
  0
VERTEX
  8
72_ARTEK_AKFURNITURE_D2_CH_000
 10
0.531112
 20
-0.243112
 30
0
  0
VERTEX
  8
72_ARTEK_AKFURNITURE_D2_CH_000
 10
0.53111
 20
-0.243449
 30
0
  0
VERTEX
  8
72_ARTEK_AKFURNITURE_D2_CH_000
 10
0.531106
 20
-0.243771
 30
0
  0
SEQEND
  0
POLYLINE
  8
72_ARTEK_AKFURNITURE_D2_CH_000
 66
     1
 70
     0
 10
0.0
 20
0.0
 30
0.0
  0
VERTEX
  8
72_ARTEK_AKFURNITURE_D2_CH_000
 10
0.0440993
 20
-0.279549
 30
0
  0
VERTEX
  8
72_ARTEK_AKFURNITURE_D2_CH_000
 10
0.0442915
 20
-0.277598
 30
0
  0
VERTEX
  8
72_ARTEK_AKFURNITURE_D2_CH_000
 10
0.0448605
 20
-0.275722
 30
0
  0
VERTEX
  8
72_ARTEK_AKFURNITURE_D2_CH_000
 10
0.0457846
 20
-0.273993
 30
0
  0
VERTEX
  8
72_ARTEK_AKFURNITURE_D2_CH_000
 10
0.0470282
 20
-0.272478
 30
0
  0
VERTEX
  8
72_ARTEK_AKFURNITURE_D2_CH_000
 10
0.0485436
 20
-0.271234
 30
0
  0
VERTEX
  8
72_ARTEK_AKFURNITURE_D2_CH_000
 10
0.0502725
 20
-0.27031
 30
0
  0
VERTEX
  8
72_ARTEK_AKFURNITURE_D2_CH_000
 10
0.0521484
 20
-0.269741
 30
0
  0
VERTEX
  8
72_ARTEK_AKFURNITURE_D2_CH_000
 10
0.0540993
 20
-0.269549
 30
0
  0
VERTEX
  8
72_ARTEK_AKFURNITURE_D2_CH_000
 10
0.0560502
 20
-0.269741
 30
0
  0
VERTEX
  8
72_ARTEK_AKFURNITURE_D2_CH_000
 10
0.0579261
 20
-0.27031
 30
0
  0
VERTEX
  8
72_ARTEK_AKFURNITURE_D2_CH_000
 10
0.059655
 20
-0.271234
 30
0
  0
VERTEX
  8
72_ARTEK_AKFURNITURE_D2_CH_000
 10
0.0611704
 20
-0.272478
 30
0
  0
VERTEX
  8
72_ARTEK_AKFURNITURE_D2_CH_000
 10
0.062414
 20
-0.273993
 30
0
  0
VERTEX
  8
72_ARTEK_AKFURNITURE_D2_CH_000
 10
0.0633381
 20
-0.275722
 30
0
  0
VERTEX
  8
72_ARTEK_AKFURNITURE_D2_CH_000
 10
0.0639072
 20
-0.277598
 30
0
  0
VERTEX
  8
72_ARTEK_AKFURNITURE_D2_CH_000
 10
0.0640993
 20
-0.279549
 30
0
  0
VERTEX
  8
72_ARTEK_AKFURNITURE_D2_CH_000
 10
0.0640993
 20
-0.279549
 30
0
  0
VERTEX
  8
72_ARTEK_AKFURNITURE_D2_CH_000
 10
0.0639072
 20
-0.2815
 30
0
  0
VERTEX
  8
72_ARTEK_AKFURNITURE_D2_CH_000
 10
0.0633381
 20
-0.283376
 30
0
  0
VERTEX
  8
72_ARTEK_AKFURNITURE_D2_CH_000
 10
0.062414
 20
-0.285104
 30
0
  0
VERTEX
  8
72_ARTEK_AKFURNITURE_D2_CH_000
 10
0.0611704
 20
-0.28662
 30
0
  0
VERTEX
  8
72_ARTEK_AKFURNITURE_D2_CH_000
 10
0.059655
 20
-0.287863
 30
0
  0
VERTEX
  8
72_ARTEK_AKFURNITURE_D2_CH_000
 10
0.0579261
 20
-0.288788
 30
0
  0
VERTEX
  8
72_ARTEK_AKFURNITURE_D2_CH_000
 10
0.0560502
 20
-0.289357
 30
0
  0
VERTEX
  8
72_ARTEK_AKFURNITURE_D2_CH_000
 10
0.0540993
 20
-0.289549
 30
0
  0
VERTEX
  8
72_ARTEK_AKFURNITURE_D2_CH_000
 10
0.0521484
 20
-0.289357
 30
0
  0
VERTEX
  8
72_ARTEK_AKFURNITURE_D2_CH_000
 10
0.0502725
 20
-0.288788
 30
0
  0
VERTEX
  8
72_ARTEK_AKFURNITURE_D2_CH_000
 10
0.0485436
 20
-0.287863
 30
0
  0
VERTEX
  8
72_ARTEK_AKFURNITURE_D2_CH_000
 10
0.0470282
 20
-0.28662
 30
0
  0
VERTEX
  8
72_ARTEK_AKFURNITURE_D2_CH_000
 10
0.0457846
 20
-0.285104
 30
0
  0
VERTEX
  8
72_ARTEK_AKFURNITURE_D2_CH_000
 10
0.0448605
 20
-0.283376
 30
0
  0
VERTEX
  8
72_ARTEK_AKFURNITURE_D2_CH_000
 10
0.0442915
 20
-0.2815
 30
0
  0
VERTEX
  8
72_ARTEK_AKFURNITURE_D2_CH_000
 10
0.0440993
 20
-0.279549
 30
0
  0
SEQEND
  0
POLYLINE
  8
72_ARTEK_AKFURNITURE_D2_CH_000
 66
     1
 70
     0
 10
0.0
 20
0.0
 30
0.0
  0
VERTEX
  8
72_ARTEK_AKFURNITURE_D2_CH_000
 10
0.069088
 20
-0.243112
 30
0
  0
VERTEX
  8
72_ARTEK_AKFURNITURE_D2_CH_000
 10
0.0690904
 20
-0.243449
 30
0
  0
VERTEX
  8
72_ARTEK_AKFURNITURE_D2_CH_000
 10
0.0690938
 20
-0.243771
 30
0
  0
VERTEX
  8
72_ARTEK_AKFURNITURE_D2_CH_000
 10
0.0690987
 20
-0.244077
 30
0
  0
VERTEX
  8
72_ARTEK_AKFURNITURE_D2_CH_000
 10
0.0690879
 20
-0.263396
 30
0
  0
VERTEX
  8
72_ARTEK_AKFURNITURE_D2_CH_000
 10
0.0690987
 20
-0.282716
 30
0
  0
VERTEX
  8
72_ARTEK_AKFURNITURE_D2_CH_000
 10
0.0690938
 20
-0.283021
 30
0
  0
VERTEX
  8
72_ARTEK_AKFURNITURE_D2_CH_000
 10
0.0690904
 20
-0.283343
 30
0
  0
VERTEX
  8
72_ARTEK_AKFURNITURE_D2_CH_000
 10
0.069088
 20
-0.28368
 30
0
  0
VERTEX
  8
72_ARTEK_AKFURNITURE_D2_CH_000
 10
0.0690855
 20
-0.284029
 30
0
  0
VERTEX
  8
72_ARTEK_AKFURNITURE_D2_CH_000
 10
0.0690822
 20
-0.284389
 30
0
  0
VERTEX
  8
72_ARTEK_AKFURNITURE_D2_CH_000
 10
0.0690773
 20
-0.284759
 30
0
  0
VERTEX
  8
72_ARTEK_AKFURNITURE_D2_CH_000
 10
0.0690703
 20
-0.285135
 30
0
  0
VERTEX
  8
72_ARTEK_AKFURNITURE_D2_CH_000
 10
0.0690602
 20
-0.285516
 30
0
  0
VERTEX
  8
72_ARTEK_AKFURNITURE_D2_CH_000
 10
0.0690462
 20
-0.2859
 30
0
  0
VERTEX
  8
72_ARTEK_AKFURNITURE_D2_CH_000
 10
0.0690273
 20
-0.286286
 30
0
  0
VERTEX
  8
72_ARTEK_AKFURNITURE_D2_CH_000
 10
0.0690031
 20
-0.286672
 30
0
  0
VERTEX
  8
72_ARTEK_AKFURNITURE_D2_CH_000
 10
0.0689729
 20
-0.287055
 30
0
  0
VERTEX
  8
72_ARTEK_AKFURNITURE_D2_CH_000
 10
0.0689357
 20
-0.287433
 30
0
  0
VERTEX
  8
72_ARTEK_AKFURNITURE_D2_CH_000
 10
0.0688905
 20
-0.287806
 30
0
  0
VERTEX
  8
72_ARTEK_AKFURNITURE_D2_CH_000
 10
0.0688368
 20
-0.28817
 30
0
  0
VERTEX
  8
72_ARTEK_AKFURNITURE_D2_CH_000
 10
0.068774
 20
-0.288525
 30
0
  0
VERTEX
  8
72_ARTEK_AKFURNITURE_D2_CH_000
 10
0.0687007
 20
-0.288868
 30
0
  0
VERTEX
  8
72_ARTEK_AKFURNITURE_D2_CH_000
 10
0.0686168
 20
-0.289197
 30
0
  0
VERTEX
  8
72_ARTEK_AKFURNITURE_D2_CH_000
 10
0.0685213
 20
-0.28951
 30
0
  0
VERTEX
  8
72_ARTEK_AKFURNITURE_D2_CH_000
 10
0.0684132
 20
-0.289807
 30
0
  0
VERTEX
  8
72_ARTEK_AKFURNITURE_D2_CH_000
 10
0.067914
 20
-0.290841
 30
0
  0
VERTEX
  8
72_ARTEK_AKFURNITURE_D2_CH_000
 10
0.0673018
 20
-0.29175
 30
0
  0
VERTEX
  8
72_ARTEK_AKFURNITURE_D2_CH_000
 10
0.0665874
 20
-0.292541
 30
0
  0
VERTEX
  8
72_ARTEK_AKFURNITURE_D2_CH_000
 10
0.0657805
 20
-0.293221
 30
0
  0
VERTEX
  8
72_ARTEK_AKFURNITURE_D2_CH_000
 10
0.0648918
 20
-0.293799
 30
0
  0
VERTEX
  8
72_ARTEK_AKFURNITURE_D2_CH_000
 10
0.0639311
 20
-0.294283
 30
0
  0
VERTEX
  8
72_ARTEK_AKFURNITURE_D2_CH_000
 10
0.0629091
 20
-0.294681
 30
0
  0
VERTEX
  8
72_ARTEK_AKFURNITURE_D2_CH_000
 10
0.0618358
 20
-0.295001
 30
0
  0
VERTEX
  8
72_ARTEK_AKFURNITURE_D2_CH_000
 10
0.0607216
 20
-0.29525
 30
0
  0
VERTEX
  8
72_ARTEK_AKFURNITURE_D2_CH_000
 10
0.0595769
 20
-0.295438
 30
0
  0
VERTEX
  8
72_ARTEK_AKFURNITURE_D2_CH_000
 10
0.0584114
 20
-0.295571
 30
0
  0
VERTEX
  8
72_ARTEK_AKFURNITURE_D2_CH_000
 10
0.0572359
 20
-0.295659
 30
0
  0
VERTEX
  8
72_ARTEK_AKFURNITURE_D2_CH_000
 10
0.0560606
 20
-0.295709
 30
0
  0
VERTEX
  8
72_ARTEK_AKFURNITURE_D2_CH_000
 10
0.0548955
 20
-0.295728
 30
0
  0
VERTEX
  8
72_ARTEK_AKFURNITURE_D2_CH_000
 10
0.0540993
 20
-0.295727
 30
0
  0
VERTEX
  8
72_ARTEK_AKFURNITURE_D2_CH_000
 10
0.0533031
 20
-0.295728
 30
0
  0
VERTEX
  8
72_ARTEK_AKFURNITURE_D2_CH_000
 10
0.052138
 20
-0.295709
 30
0
  0
VERTEX
  8
72_ARTEK_AKFURNITURE_D2_CH_000
 10
0.0509627
 20
-0.295659
 30
0
  0
VERTEX
  8
72_ARTEK_AKFURNITURE_D2_CH_000
 10
0.0497872
 20
-0.295571
 30
0
  0
VERTEX
  8
72_ARTEK_AKFURNITURE_D2_CH_000
 10
0.0486217
 20
-0.295438
 30
0
  0
VERTEX
  8
72_ARTEK_AKFURNITURE_D2_CH_000
 10
0.047477
 20
-0.29525
 30
0
  0
VERTEX
  8
72_ARTEK_AKFURNITURE_D2_CH_000
 10
0.0463628
 20
-0.295001
 30
0
  0
VERTEX
  8
72_ARTEK_AKFURNITURE_D2_CH_000
 10
0.0452895
 20
-0.294681
 30
0
  0
VERTEX
  8
72_ARTEK_AKFURNITURE_D2_CH_000
 10
0.0442675
 20
-0.294283
 30
0
  0
VERTEX
  8
72_ARTEK_AKFURNITURE_D2_CH_000
 10
0.0433068
 20
-0.293799
 30
0
  0
VERTEX
  8
72_ARTEK_AKFURNITURE_D2_CH_000
 10
0.0424181
 20
-0.293221
 30
0
  0
VERTEX
  8
72_ARTEK_AKFURNITURE_D2_CH_000
 10
0.0416112
 20
-0.292541
 30
0
  0
VERTEX
  8
72_ARTEK_AKFURNITURE_D2_CH_000
 10
0.0408968
 20
-0.29175
 30
0
  0
VERTEX
  8
72_ARTEK_AKFURNITURE_D2_CH_000
 10
0.0402846
 20
-0.290841
 30
0
  0
VERTEX
  8
72_ARTEK_AKFURNITURE_D2_CH_000
 10
0.0397854
 20
-0.289807
 30
0
  0
VERTEX
  8
72_ARTEK_AKFURNITURE_D2_CH_000
 10
0.0396773
 20
-0.28951
 30
0
  0
VERTEX
  8
72_ARTEK_AKFURNITURE_D2_CH_000
 10
0.0395818
 20
-0.289197
 30
0
  0
VERTEX
  8
72_ARTEK_AKFURNITURE_D2_CH_000
 10
0.0394979
 20
-0.288868
 30
0
  0
VERTEX
  8
72_ARTEK_AKFURNITURE_D2_CH_000
 10
0.0394247
 20
-0.288525
 30
0
  0
VERTEX
  8
72_ARTEK_AKFURNITURE_D2_CH_000
 10
0.0393618
 20
-0.28817
 30
0
  0
VERTEX
  8
72_ARTEK_AKFURNITURE_D2_CH_000
 10
0.0393081
 20
-0.287806
 30
0
  0
VERTEX
  8
72_ARTEK_AKFURNITURE_D2_CH_000
 10
0.0392629
 20
-0.287433
 30
0
  0
VERTEX
  8
72_ARTEK_AKFURNITURE_D2_CH_000
 10
0.0392257
 20
-0.287055
 30
0
  0
VERTEX
  8
72_ARTEK_AKFURNITURE_D2_CH_000
 10
0.0391955
 20
-0.286672
 30
0
  0
VERTEX
  8
72_ARTEK_AKFURNITURE_D2_CH_000
 10
0.0391714
 20
-0.286286
 30
0
  0
VERTEX
  8
72_ARTEK_AKFURNITURE_D2_CH_000
 10
0.0391524
 20
-0.2859
 30
0
  0
VERTEX
  8
72_ARTEK_AKFURNITURE_D2_CH_000
 10
0.0391384
 20
-0.285516
 30
0
  0
VERTEX
  8
72_ARTEK_AKFURNITURE_D2_CH_000
 10
0.0391283
 20
-0.285135
 30
0
  0
VERTEX
  8
72_ARTEK_AKFURNITURE_D2_CH_000
 10
0.0391213
 20
-0.284759
 30
0
  0
VERTEX
  8
72_ARTEK_AKFURNITURE_D2_CH_000
 10
0.0391164
 20
-0.284389
 30
0
  0
VERTEX
  8
72_ARTEK_AKFURNITURE_D2_CH_000
 10
0.0391131
 20
-0.284029
 30
0
  0
VERTEX
  8
72_ARTEK_AKFURNITURE_D2_CH_000
 10
0.0391106
 20
-0.28368
 30
0
  0
VERTEX
  8
72_ARTEK_AKFURNITURE_D2_CH_000
 10
0.0391082
 20
-0.283343
 30
0
  0
VERTEX
  8
72_ARTEK_AKFURNITURE_D2_CH_000
 10
0.0391048
 20
-0.283021
 30
0
  0
VERTEX
  8
72_ARTEK_AKFURNITURE_D2_CH_000
 10
0.0391
 20
-0.282716
 30
0
  0
VERTEX
  8
72_ARTEK_AKFURNITURE_D2_CH_000
 10
0.0391107
 20
-0.263396
 30
0
  0
VERTEX
  8
72_ARTEK_AKFURNITURE_D2_CH_000
 10
0.0391
 20
-0.244077
 30
0
  0
VERTEX
  8
72_ARTEK_AKFURNITURE_D2_CH_000
 10
0.0391048
 20
-0.243771
 30
0
  0
VERTEX
  8
72_ARTEK_AKFURNITURE_D2_CH_000
 10
0.0391082
 20
-0.243449
 30
0
  0
VERTEX
  8
72_ARTEK_AKFURNITURE_D2_CH_000
 10
0.0391106
 20
-0.243112
 30
0
  0
VERTEX
  8
72_ARTEK_AKFURNITURE_D2_CH_000
 10
0.0391131
 20
-0.242763
 30
0
  0
VERTEX
  8
72_ARTEK_AKFURNITURE_D2_CH_000
 10
0.0391164
 20
-0.242403
 30
0
  0
VERTEX
  8
72_ARTEK_AKFURNITURE_D2_CH_000
 10
0.0391213
 20
-0.242033
 30
0
  0
VERTEX
  8
72_ARTEK_AKFURNITURE_D2_CH_000
 10
0.0391283
 20
-0.241657
 30
0
  0
VERTEX
  8
72_ARTEK_AKFURNITURE_D2_CH_000
 10
0.0391384
 20
-0.241276
 30
0
  0
VERTEX
  8
72_ARTEK_AKFURNITURE_D2_CH_000
 10
0.0391524
 20
-0.240892
 30
0
  0
VERTEX
  8
72_ARTEK_AKFURNITURE_D2_CH_000
 10
0.0391714
 20
-0.240506
 30
0
  0
VERTEX
  8
72_ARTEK_AKFURNITURE_D2_CH_000
 10
0.0391955
 20
-0.240121
 30
0
  0
VERTEX
  8
72_ARTEK_AKFURNITURE_D2_CH_000
 10
0.0392257
 20
-0.239738
 30
0
  0
VERTEX
  8
72_ARTEK_AKFURNITURE_D2_CH_000
 10
0.0392629
 20
-0.239359
 30
0
  0
VERTEX
  8
72_ARTEK_AKFURNITURE_D2_CH_000
 10
0.0393081
 20
-0.238987
 30
0
  0
VERTEX
  8
72_ARTEK_AKFURNITURE_D2_CH_000
 10
0.0393618
 20
-0.238622
 30
0
  0
VERTEX
  8
72_ARTEK_AKFURNITURE_D2_CH_000
 10
0.0394247
 20
-0.238267
 30
0
  0
VERTEX
  8
72_ARTEK_AKFURNITURE_D2_CH_000
 10
0.0394979
 20
-0.237925
 30
0
  0
VERTEX
  8
72_ARTEK_AKFURNITURE_D2_CH_000
 10
0.0395818
 20
-0.237595
 30
0
  0
VERTEX
  8
72_ARTEK_AKFURNITURE_D2_CH_000
 10
0.0396773
 20
-0.237282
 30
0
  0
VERTEX
  8
72_ARTEK_AKFURNITURE_D2_CH_000
 10
0.0397854
 20
-0.236986
 30
0
  0
VERTEX
  8
72_ARTEK_AKFURNITURE_D2_CH_000
 10
0.0402846
 20
-0.235951
 30
0
  0
VERTEX
  8
72_ARTEK_AKFURNITURE_D2_CH_000
 10
0.0408968
 20
-0.235042
 30
0
  0
VERTEX
  8
72_ARTEK_AKFURNITURE_D2_CH_000
 10
0.0416112
 20
-0.234251
 30
0
  0
VERTEX
  8
72_ARTEK_AKFURNITURE_D2_CH_000
 10
0.0424181
 20
-0.233571
 30
0
  0
VERTEX
  8
72_ARTEK_AKFURNITURE_D2_CH_000
 10
0.0433068
 20
-0.232993
 30
0
  0
VERTEX
  8
72_ARTEK_AKFURNITURE_D2_CH_000
 10
0.0442675
 20
-0.232509
 30
0
  0
VERTEX
  8
72_ARTEK_AKFURNITURE_D2_CH_000
 10
0.0452895
 20
-0.232111
 30
0
  0
VERTEX
  8
72_ARTEK_AKFURNITURE_D2_CH_000
 10
0.0463628
 20
-0.231791
 30
0
  0
VERTEX
  8
72_ARTEK_AKFURNITURE_D2_CH_000
 10
0.047477
 20
-0.231542
 30
0
  0
VERTEX
  8
72_ARTEK_AKFURNITURE_D2_CH_000
 10
0.0486217
 20
-0.231354
 30
0
  0
VERTEX
  8
72_ARTEK_AKFURNITURE_D2_CH_000
 10
0.0497872
 20
-0.231221
 30
0
  0
VERTEX
  8
72_ARTEK_AKFURNITURE_D2_CH_000
 10
0.0509627
 20
-0.231133
 30
0
  0
VERTEX
  8
72_ARTEK_AKFURNITURE_D2_CH_000
 10
0.052138
 20
-0.231083
 30
0
  0
VERTEX
  8
72_ARTEK_AKFURNITURE_D2_CH_000
 10
0.0533031
 20
-0.231064
 30
0
  0
VERTEX
  8
72_ARTEK_AKFURNITURE_D2_CH_000
 10
0.0540993
 20
-0.231066
 30
0
  0
VERTEX
  8
72_ARTEK_AKFURNITURE_D2_CH_000
 10
0.0548955
 20
-0.231064
 30
0
  0
VERTEX
  8
72_ARTEK_AKFURNITURE_D2_CH_000
 10
0.0560606
 20
-0.231083
 30
0
  0
VERTEX
  8
72_ARTEK_AKFURNITURE_D2_CH_000
 10
0.0572359
 20
-0.231133
 30
0
  0
VERTEX
  8
72_ARTEK_AKFURNITURE_D2_CH_000
 10
0.0584114
 20
-0.231221
 30
0
  0
VERTEX
  8
72_ARTEK_AKFURNITURE_D2_CH_000
 10
0.0595769
 20
-0.231354
 30
0
  0
VERTEX
  8
72_ARTEK_AKFURNITURE_D2_CH_000
 10
0.0607216
 20
-0.231542
 30
0
  0
VERTEX
  8
72_ARTEK_AKFURNITURE_D2_CH_000
 10
0.0618358
 20
-0.231791
 30
0
  0
VERTEX
  8
72_ARTEK_AKFURNITURE_D2_CH_000
 10
0.0629091
 20
-0.232111
 30
0
  0
VERTEX
  8
72_ARTEK_AKFURNITURE_D2_CH_000
 10
0.0639311
 20
-0.232509
 30
0
  0
VERTEX
  8
72_ARTEK_AKFURNITURE_D2_CH_000
 10
0.0648918
 20
-0.232993
 30
0
  0
VERTEX
  8
72_ARTEK_AKFURNITURE_D2_CH_000
 10
0.0657805
 20
-0.233571
 30
0
  0
VERTEX
  8
72_ARTEK_AKFURNITURE_D2_CH_000
 10
0.0665874
 20
-0.234251
 30
0
  0
VERTEX
  8
72_ARTEK_AKFURNITURE_D2_CH_000
 10
0.0673018
 20
-0.235042
 30
0
  0
VERTEX
  8
72_ARTEK_AKFURNITURE_D2_CH_000
 10
0.067914
 20
-0.235951
 30
0
  0
VERTEX
  8
72_ARTEK_AKFURNITURE_D2_CH_000
 10
0.0684132
 20
-0.236986
 30
0
  0
VERTEX
  8
72_ARTEK_AKFURNITURE_D2_CH_000
 10
0.0685213
 20
-0.237282
 30
0
  0
VERTEX
  8
72_ARTEK_AKFURNITURE_D2_CH_000
 10
0.0686168
 20
-0.237595
 30
0
  0
VERTEX
  8
72_ARTEK_AKFURNITURE_D2_CH_000
 10
0.0687007
 20
-0.237925
 30
0
  0
VERTEX
  8
72_ARTEK_AKFURNITURE_D2_CH_000
 10
0.068774
 20
-0.238267
 30
0
  0
VERTEX
  8
72_ARTEK_AKFURNITURE_D2_CH_000
 10
0.0688368
 20
-0.238622
 30
0
  0
VERTEX
  8
72_ARTEK_AKFURNITURE_D2_CH_000
 10
0.0688905
 20
-0.238987
 30
0
  0
VERTEX
  8
72_ARTEK_AKFURNITURE_D2_CH_000
 10
0.0689357
 20
-0.239359
 30
0
  0
VERTEX
  8
72_ARTEK_AKFURNITURE_D2_CH_000
 10
0.0689729
 20
-0.239738
 30
0
  0
VERTEX
  8
72_ARTEK_AKFURNITURE_D2_CH_000
 10
0.0690031
 20
-0.240121
 30
0
  0
VERTEX
  8
72_ARTEK_AKFURNITURE_D2_CH_000
 10
0.0690273
 20
-0.240506
 30
0
  0
VERTEX
  8
72_ARTEK_AKFURNITURE_D2_CH_000
 10
0.0690462
 20
-0.240892
 30
0
  0
VERTEX
  8
72_ARTEK_AKFURNITURE_D2_CH_000
 10
0.0690602
 20
-0.241276
 30
0
  0
VERTEX
  8
72_ARTEK_AKFURNITURE_D2_CH_000
 10
0.0690703
 20
-0.241657
 30
0
  0
VERTEX
  8
72_ARTEK_AKFURNITURE_D2_CH_000
 10
0.0690773
 20
-0.242033
 30
0
  0
VERTEX
  8
72_ARTEK_AKFURNITURE_D2_CH_000
 10
0.0690822
 20
-0.242403
 30
0
  0
VERTEX
  8
72_ARTEK_AKFURNITURE_D2_CH_000
 10
0.0690855
 20
-0.242763
 30
0
  0
VERTEX
  8
72_ARTEK_AKFURNITURE_D2_CH_000
 10
0.069088
 20
-0.243112
 30
0
  0
SEQEND
  0
POLYLINE
  8
72_ARTEK_AKFURNITURE_D2_CH_000
 66
     1
 70
     0
 10
0.0
 20
0.0
 30
0.0
  0
VERTEX
  8
72_ARTEK_AKFURNITURE_D2_CH_000
 10
0.556101
 20
-0.279549
 30
0
  0
VERTEX
  8
72_ARTEK_AKFURNITURE_D2_CH_000
 10
0.555909
 20
-0.277598
 30
0
  0
VERTEX
  8
72_ARTEK_AKFURNITURE_D2_CH_000
 10
0.555339
 20
-0.275722
 30
0
  0
VERTEX
  8
72_ARTEK_AKFURNITURE_D2_CH_000
 10
0.554415
 20
-0.273993
 30
0
  0
VERTEX
  8
72_ARTEK_AKFURNITURE_D2_CH_000
 10
0.553172
 20
-0.272478
 30
0
  0
VERTEX
  8
72_ARTEK_AKFURNITURE_D2_CH_000
 10
0.551656
 20
-0.271234
 30
0
  0
VERTEX
  8
72_ARTEK_AKFURNITURE_D2_CH_000
 10
0.549928
 20
-0.27031
 30
0
  0
VERTEX
  8
72_ARTEK_AKFURNITURE_D2_CH_000
 10
0.548052
 20
-0.269741
 30
0
  0
VERTEX
  8
72_ARTEK_AKFURNITURE_D2_CH_000
 10
0.546101
 20
-0.269549
 30
0
  0
VERTEX
  8
72_ARTEK_AKFURNITURE_D2_CH_000
 10
0.54415
 20
-0.269741
 30
0
  0
VERTEX
  8
72_ARTEK_AKFURNITURE_D2_CH_000
 10
0.542274
 20
-0.27031
 30
0
  0
VERTEX
  8
72_ARTEK_AKFURNITURE_D2_CH_000
 10
0.540545
 20
-0.271234
 30
0
  0
VERTEX
  8
72_ARTEK_AKFURNITURE_D2_CH_000
 10
0.53903
 20
-0.272478
 30
0
  0
VERTEX
  8
72_ARTEK_AKFURNITURE_D2_CH_000
 10
0.537786
 20
-0.273993
 30
0
  0
VERTEX
  8
72_ARTEK_AKFURNITURE_D2_CH_000
 10
0.536862
 20
-0.275722
 30
0
  0
VERTEX
  8
72_ARTEK_AKFURNITURE_D2_CH_000
 10
0.536293
 20
-0.277598
 30
0
  0
VERTEX
  8
72_ARTEK_AKFURNITURE_D2_CH_000
 10
0.536101
 20
-0.279549
 30
0
  0
VERTEX
  8
72_ARTEK_AKFURNITURE_D2_CH_000
 10
0.536101
 20
-0.279549
 30
0
  0
VERTEX
  8
72_ARTEK_AKFURNITURE_D2_CH_000
 10
0.536293
 20
-0.2815
 30
0
  0
VERTEX
  8
72_ARTEK_AKFURNITURE_D2_CH_000
 10
0.536862
 20
-0.283376
 30
0
  0
VERTEX
  8
72_ARTEK_AKFURNITURE_D2_CH_000
 10
0.537786
 20
-0.285104
 30
0
  0
VERTEX
  8
72_ARTEK_AKFURNITURE_D2_CH_000
 10
0.53903
 20
-0.28662
 30
0
  0
VERTEX
  8
72_ARTEK_AKFURNITURE_D2_CH_000
 10
0.540545
 20
-0.287863
 30
0
  0
VERTEX
  8
72_ARTEK_AKFURNITURE_D2_CH_000
 10
0.542274
 20
-0.288788
 30
0
  0
VERTEX
  8
72_ARTEK_AKFURNITURE_D2_CH_000
 10
0.54415
 20
-0.289357
 30
0
  0
VERTEX
  8
72_ARTEK_AKFURNITURE_D2_CH_000
 10
0.546101
 20
-0.289549
 30
0
  0
VERTEX
  8
72_ARTEK_AKFURNITURE_D2_CH_000
 10
0.548052
 20
-0.289357
 30
0
  0
VERTEX
  8
72_ARTEK_AKFURNITURE_D2_CH_000
 10
0.549928
 20
-0.288788
 30
0
  0
VERTEX
  8
72_ARTEK_AKFURNITURE_D2_CH_000
 10
0.551656
 20
-0.287863
 30
0
  0
VERTEX
  8
72_ARTEK_AKFURNITURE_D2_CH_000
 10
0.553172
 20
-0.28662
 30
0
  0
VERTEX
  8
72_ARTEK_AKFURNITURE_D2_CH_000
 10
0.554415
 20
-0.285104
 30
0
  0
VERTEX
  8
72_ARTEK_AKFURNITURE_D2_CH_000
 10
0.555339
 20
-0.283376
 30
0
  0
VERTEX
  8
72_ARTEK_AKFURNITURE_D2_CH_000
 10
0.555909
 20
-0.2815
 30
0
  0
VERTEX
  8
72_ARTEK_AKFURNITURE_D2_CH_000
 10
0.556101
 20
-0.279549
 30
0
  0
SEQEND
  0
POLYLINE
  8
72_ARTEK_AKFURNITURE_D2_CH_000
 66
     1
 70
     0
 10
0.0
 20
0.0
 30
0.0
  0
VERTEX
  8
72_ARTEK_AKFURNITURE_D2_CH_000
 10
0.0143529
 20
0.177691
 30
0
  0
VERTEX
  8
72_ARTEK_AKFURNITURE_D2_CH_000
 10
0.0145451
 20
0.179641
 30
0
  0
VERTEX
  8
72_ARTEK_AKFURNITURE_D2_CH_000
 10
0.0151141
 20
0.181517
 30
0
  0
VERTEX
  8
72_ARTEK_AKFURNITURE_D2_CH_000
 10
0.0160382
 20
0.183246
 30
0
  0
VERTEX
  8
72_ARTEK_AKFURNITURE_D2_CH_000
 10
0.0172819
 20
0.184762
 30
0
  0
VERTEX
  8
72_ARTEK_AKFURNITURE_D2_CH_000
 10
0.0187972
 20
0.186005
 30
0
  0
VERTEX
  8
72_ARTEK_AKFURNITURE_D2_CH_000
 10
0.0205261
 20
0.186929
 30
0
  0
VERTEX
  8
72_ARTEK_AKFURNITURE_D2_CH_000
 10
0.022402
 20
0.187498
 30
0
  0
VERTEX
  8
72_ARTEK_AKFURNITURE_D2_CH_000
 10
0.0243529
 20
0.187691
 30
0
  0
VERTEX
  8
72_ARTEK_AKFURNITURE_D2_CH_000
 10
0.0263038
 20
0.187498
 30
0
  0
VERTEX
  8
72_ARTEK_AKFURNITURE_D2_CH_000
 10
0.0281798
 20
0.186929
 30
0
  0
VERTEX
  8
72_ARTEK_AKFURNITURE_D2_CH_000
 10
0.0299086
 20
0.186005
 30
0
  0
VERTEX
  8
72_ARTEK_AKFURNITURE_D2_CH_000
 10
0.031424
 20
0.184762
 30
0
  0
VERTEX
  8
72_ARTEK_AKFURNITURE_D2_CH_000
 10
0.0326676
 20
0.183246
 30
0
  0
VERTEX
  8
72_ARTEK_AKFURNITURE_D2_CH_000
 10
0.0335917
 20
0.181517
 30
0
  0
VERTEX
  8
72_ARTEK_AKFURNITURE_D2_CH_000
 10
0.0341608
 20
0.179641
 30
0
  0
VERTEX
  8
72_ARTEK_AKFURNITURE_D2_CH_000
 10
0.0343529
 20
0.177691
 30
0
  0
VERTEX
  8
72_ARTEK_AKFURNITURE_D2_CH_000
 10
0.0343529
 20
0.177691
 30
0
  0
VERTEX
  8
72_ARTEK_AKFURNITURE_D2_CH_000
 10
0.0341608
 20
0.17574
 30
0
  0
VERTEX
  8
72_ARTEK_AKFURNITURE_D2_CH_000
 10
0.0335917
 20
0.173864
 30
0
  0
VERTEX
  8
72_ARTEK_AKFURNITURE_D2_CH_000
 10
0.0326676
 20
0.172135
 30
0
  0
VERTEX
  8
72_ARTEK_AKFURNITURE_D2_CH_000
 10
0.031424
 20
0.170619
 30
0
  0
VERTEX
  8
72_ARTEK_AKFURNITURE_D2_CH_000
 10
0.0299086
 20
0.169376
 30
0
  0
VERTEX
  8
72_ARTEK_AKFURNITURE_D2_CH_000
 10
0.0281798
 20
0.168452
 30
0
  0
VERTEX
  8
72_ARTEK_AKFURNITURE_D2_CH_000
 10
0.0263038
 20
0.167883
 30
0
  0
VERTEX
  8
72_ARTEK_AKFURNITURE_D2_CH_000
 10
0.0243529
 20
0.167691
 30
0
  0
VERTEX
  8
72_ARTEK_AKFURNITURE_D2_CH_000
 10
0.022402
 20
0.167883
 30
0
  0
VERTEX
  8
72_ARTEK_AKFURNITURE_D2_CH_000
 10
0.0205261
 20
0.168452
 30
0
  0
VERTEX
  8
72_ARTEK_AKFURNITURE_D2_CH_000
 10
0.0187972
 20
0.169376
 30
0
  0
VERTEX
  8
72_ARTEK_AKFURNITURE_D2_CH_000
 10
0.0172819
 20
0.170619
 30
0
  0
VERTEX
  8
72_ARTEK_AKFURNITURE_D2_CH_000
 10
0.0160382
 20
0.172135
 30
0
  0
VERTEX
  8
72_ARTEK_AKFURNITURE_D2_CH_000
 10
0.0151141
 20
0.173864
 30
0
  0
VERTEX
  8
72_ARTEK_AKFURNITURE_D2_CH_000
 10
0.0145451
 20
0.17574
 30
0
  0
VERTEX
  8
72_ARTEK_AKFURNITURE_D2_CH_000
 10
0.0143529
 20
0.177691
 30
0
  0
SEQEND
  0
POLYLINE
  8
72_ARTEK_AKFURNITURE_D2_CH_000
 66
     1
 70
     0
 10
0.0
 20
0.0
 30
0.0
  0
VERTEX
  8
72_ARTEK_AKFURNITURE_D2_CH_000
 10
0.0390526
 20
0.00161827
 30
0
  0
VERTEX
  8
72_ARTEK_AKFURNITURE_D2_CH_000
 10
0.0390542
 20
0.00195549
 30
0
  0
VERTEX
  8
72_ARTEK_AKFURNITURE_D2_CH_000
 10
0.0390542
 20
0.180221
 30
0
  0
VERTEX
  8
72_ARTEK_AKFURNITURE_D2_CH_000
 10
0.0390526
 20
0.180558
 30
0
  0
VERTEX
  8
72_ARTEK_AKFURNITURE_D2_CH_000
 10
0.0390517
 20
0.180904
 30
0
  0
VERTEX
  8
72_ARTEK_AKFURNITURE_D2_CH_000
 10
0.0390505
 20
0.181258
 30
0
  0
VERTEX
  8
72_ARTEK_AKFURNITURE_D2_CH_000
 10
0.0390475
 20
0.181619
 30
0
  0
VERTEX
  8
72_ARTEK_AKFURNITURE_D2_CH_000
 10
0.039042
 20
0.181984
 30
0
  0
VERTEX
  8
72_ARTEK_AKFURNITURE_D2_CH_000
 10
0.0390322
 20
0.182355
 30
0
  0
VERTEX
  8
72_ARTEK_AKFURNITURE_D2_CH_000
 10
0.0390172
 20
0.182728
 30
0
  0
VERTEX
  8
72_ARTEK_AKFURNITURE_D2_CH_000
 10
0.0389959
 20
0.183102
 30
0
  0
VERTEX
  8
72_ARTEK_AKFURNITURE_D2_CH_000
 10
0.0389669
 20
0.183478
 30
0
  0
VERTEX
  8
72_ARTEK_AKFURNITURE_D2_CH_000
 10
0.0389287
 20
0.183853
 30
0
  0
VERTEX
  8
72_ARTEK_AKFURNITURE_D2_CH_000
 10
0.0388808
 20
0.184226
 30
0
  0
VERTEX
  8
72_ARTEK_AKFURNITURE_D2_CH_000
 10
0.0388216
 20
0.184596
 30
0
  0
VERTEX
  8
72_ARTEK_AKFURNITURE_D2_CH_000
 10
0.0387499
 20
0.184962
 30
0
  0
VERTEX
  8
72_ARTEK_AKFURNITURE_D2_CH_000
 10
0.0386642
 20
0.185322
 30
0
  0
VERTEX
  8
72_ARTEK_AKFURNITURE_D2_CH_000
 10
0.0385641
 20
0.185676
 30
0
  0
VERTEX
  8
72_ARTEK_AKFURNITURE_D2_CH_000
 10
0.0384475
 20
0.186023
 30
0
  0
VERTEX
  8
72_ARTEK_AKFURNITURE_D2_CH_000
 10
0.0383135
 20
0.18636
 30
0
  0
VERTEX
  8
72_ARTEK_AKFURNITURE_D2_CH_000
 10
0.0381612
 20
0.186687
 30
0
  0
VERTEX
  8
72_ARTEK_AKFURNITURE_D2_CH_000
 10
0.0379891
 20
0.187003
 30
0
  0
VERTEX
  8
72_ARTEK_AKFURNITURE_D2_CH_000
 10
0.0377959
 20
0.187307
 30
0
  0
VERTEX
  8
72_ARTEK_AKFURNITURE_D2_CH_000
 10
0.0373751
 20
0.187843
 30
0
  0
VERTEX
  8
72_ARTEK_AKFURNITURE_D2_CH_000
 10
0.0368841
 20
0.188339
 30
0
  0
VERTEX
  8
72_ARTEK_AKFURNITURE_D2_CH_000
 10
0.0363302
 20
0.188794
 30
0
  0
VERTEX
  8
72_ARTEK_AKFURNITURE_D2_CH_000
 10
0.0357198
 20
0.18921
 30
0
  0
VERTEX
  8
72_ARTEK_AKFURNITURE_D2_CH_000
 10
0.03506
 20
0.18959
 30
0
  0
VERTEX
  8
72_ARTEK_AKFURNITURE_D2_CH_000
 10
0.0343581
 20
0.189934
 30
0
  0
VERTEX
  8
72_ARTEK_AKFURNITURE_D2_CH_000
 10
0.0336208
 20
0.190244
 30
0
  0
VERTEX
  8
72_ARTEK_AKFURNITURE_D2_CH_000
 10
0.0328554
 20
0.190521
 30
0
  0
VERTEX
  8
72_ARTEK_AKFURNITURE_D2_CH_000
 10
0.0320684
 20
0.190768
 30
0
  0
VERTEX
  8
72_ARTEK_AKFURNITURE_D2_CH_000
 10
0.031267
 20
0.190984
 30
0
  0
VERTEX
  8
72_ARTEK_AKFURNITURE_D2_CH_000
 10
0.0304583
 20
0.191172
 30
0
  0
VERTEX
  8
72_ARTEK_AKFURNITURE_D2_CH_000
 10
0.029649
 20
0.191334
 30
0
  0
VERTEX
  8
72_ARTEK_AKFURNITURE_D2_CH_000
 10
0.0288463
 20
0.19147
 30
0
  0
VERTEX
  8
72_ARTEK_AKFURNITURE_D2_CH_000
 10
0.0280569
 20
0.191582
 30
0
  0
VERTEX
  8
72_ARTEK_AKFURNITURE_D2_CH_000
 10
0.0272881
 20
0.191672
 30
0
  0
VERTEX
  8
72_ARTEK_AKFURNITURE_D2_CH_000
 10
0.0265468
 20
0.191741
 30
0
  0
VERTEX
  8
72_ARTEK_AKFURNITURE_D2_CH_000
 10
0.0258397
 20
0.19179
 30
0
  0
VERTEX
  8
72_ARTEK_AKFURNITURE_D2_CH_000
 10
0.0251742
 20
0.191822
 30
0
  0
VERTEX
  8
72_ARTEK_AKFURNITURE_D2_CH_000
 10
0.0245568
 20
0.191836
 30
0
  0
VERTEX
  8
72_ARTEK_AKFURNITURE_D2_CH_000
 10
0.0239947
 20
0.191836
 30
0
  0
VERTEX
  8
72_ARTEK_AKFURNITURE_D2_CH_000
 10
0.0234292
 20
0.191821
 30
0
  0
VERTEX
  8
72_ARTEK_AKFURNITURE_D2_CH_000
 10
0.0228097
 20
0.191789
 30
0
  0
VERTEX
  8
72_ARTEK_AKFURNITURE_D2_CH_000
 10
0.0221429
 20
0.191739
 30
0
  0
VERTEX
  8
72_ARTEK_AKFURNITURE_D2_CH_000
 10
0.0214355
 20
0.191669
 30
0
  0
VERTEX
  8
72_ARTEK_AKFURNITURE_D2_CH_000
 10
0.0206945
 20
0.191579
 30
0
  0
VERTEX
  8
72_ARTEK_AKFURNITURE_D2_CH_000
 10
0.019927
 20
0.191467
 30
0
  0
VERTEX
  8
72_ARTEK_AKFURNITURE_D2_CH_000
 10
0.0191399
 20
0.191333
 30
0
  0
VERTEX
  8
72_ARTEK_AKFURNITURE_D2_CH_000
 10
0.0183401
 20
0.191174
 30
0
  0
VERTEX
  8
72_ARTEK_AKFURNITURE_D2_CH_000
 10
0.0175344
 20
0.19099
 30
0
  0
VERTEX
  8
72_ARTEK_AKFURNITURE_D2_CH_000
 10
0.0167299
 20
0.190779
 30
0
  0
VERTEX
  8
72_ARTEK_AKFURNITURE_D2_CH_000
 10
0.0159334
 20
0.190541
 30
0
  0
VERTEX
  8
72_ARTEK_AKFURNITURE_D2_CH_000
 10
0.0151519
 20
0.190273
 30
0
  0
VERTEX
  8
72_ARTEK_AKFURNITURE_D2_CH_000
 10
0.0143923
 20
0.189975
 30
0
  0
VERTEX
  8
72_ARTEK_AKFURNITURE_D2_CH_000
 10
0.0136617
 20
0.189646
 30
0
  0
VERTEX
  8
72_ARTEK_AKFURNITURE_D2_CH_000
 10
0.0129665
 20
0.189284
 30
0
  0
VERTEX
  8
72_ARTEK_AKFURNITURE_D2_CH_000
 10
0.0123144
 20
0.188888
 30
0
  0
VERTEX
  8
72_ARTEK_AKFURNITURE_D2_CH_000
 10
0.0117116
 20
0.188457
 30
0
  0
VERTEX
  8
72_ARTEK_AKFURNITURE_D2_CH_000
 10
0.0111654
 20
0.18799
 30
0
  0
VERTEX
  8
72_ARTEK_AKFURNITURE_D2_CH_000
 10
0.0106823
 20
0.187485
 30
0
  0
VERTEX
  8
72_ARTEK_AKFURNITURE_D2_CH_000
 10
0.01027
 20
0.186941
 30
0
  0
VERTEX
  8
72_ARTEK_AKFURNITURE_D2_CH_000
 10
0.0100829
 20
0.186637
 30
0
  0
VERTEX
  8
72_ARTEK_AKFURNITURE_D2_CH_000
 10
0.00991598
 20
0.18632
 30
0
  0
VERTEX
  8
72_ARTEK_AKFURNITURE_D2_CH_000
 10
0.00976827
 20
0.18599
 30
0
  0
VERTEX
  8
72_ARTEK_AKFURNITURE_D2_CH_000
 10
0.00963857
 20
0.18565
 30
0
  0
VERTEX
  8
72_ARTEK_AKFURNITURE_D2_CH_000
 10
0.00952566
 20
0.185301
 30
0
  0
VERTEX
  8
72_ARTEK_AKFURNITURE_D2_CH_000
 10
0.00942831
 20
0.184943
 30
0
  0
VERTEX
  8
72_ARTEK_AKFURNITURE_D2_CH_000
 10
0.0093453
 20
0.184579
 30
0
  0
VERTEX
  8
72_ARTEK_AKFURNITURE_D2_CH_000
 10
0.00927572
 20
0.184209
 30
0
  0
VERTEX
  8
72_ARTEK_AKFURNITURE_D2_CH_000
 10
0.00921835
 20
0.183835
 30
0
  0
VERTEX
  8
72_ARTEK_AKFURNITURE_D2_CH_000
 10
0.00917196
 20
0.183458
 30
0
  0
VERTEX
  8
72_ARTEK_AKFURNITURE_D2_CH_000
 10
0.00913534
 20
0.183079
 30
0
  0
VERTEX
  8
72_ARTEK_AKFURNITURE_D2_CH_000
 10
0.00910726
 20
0.1827
 30
0
  0
VERTEX
  8
72_ARTEK_AKFURNITURE_D2_CH_000
 10
0.00908682
 20
0.182322
 30
0
  0
VERTEX
  8
72_ARTEK_AKFURNITURE_D2_CH_000
 10
0.00907278
 20
0.181946
 30
0
  0
VERTEX
  8
72_ARTEK_AKFURNITURE_D2_CH_000
 10
0.00906362
 20
0.181573
 30
0
  0
VERTEX
  8
72_ARTEK_AKFURNITURE_D2_CH_000
 10
0.00905843
 20
0.181206
 30
0
  0
VERTEX
  8
72_ARTEK_AKFURNITURE_D2_CH_000
 10
0.00905599
 20
0.180844
 30
0
  0
VERTEX
  8
72_ARTEK_AKFURNITURE_D2_CH_000
 10
0.00905538
 20
0.18049
 30
0
  0
VERTEX
  8
72_ARTEK_AKFURNITURE_D2_CH_000
 10
0.00905508
 20
0.180145
 30
0
  0
VERTEX
  8
72_ARTEK_AKFURNITURE_D2_CH_000
 10
0.00905416
 20
0.179809
 30
0
  0
VERTEX
  8
72_ARTEK_AKFURNITURE_D2_CH_000
 10
0.00904409
 20
0.177647
 30
0
  0
VERTEX
  8
72_ARTEK_AKFURNITURE_D2_CH_000
 10
0.00903616
 20
0.175484
 30
0
  0
VERTEX
  8
72_ARTEK_AKFURNITURE_D2_CH_000
 10
0.00903036
 20
0.17332
 30
0
  0
VERTEX
  8
72_ARTEK_AKFURNITURE_D2_CH_000
 10
0.00902578
 20
0.171156
 30
0
  0
VERTEX
  8
72_ARTEK_AKFURNITURE_D2_CH_000
 10
0.00902303
 20
0.168992
 30
0
  0
VERTEX
  8
72_ARTEK_AKFURNITURE_D2_CH_000
 10
0.00902181
 20
0.166827
 30
0
  0
VERTEX
  8
72_ARTEK_AKFURNITURE_D2_CH_000
 10
0.00902178
 20
0.166597
 30
0
  0
VERTEX
  8
72_ARTEK_AKFURNITURE_D2_CH_000
 10
0.00903954
 20
0.114536
 30
0
  0
VERTEX
  8
72_ARTEK_AKFURNITURE_D2_CH_000
 10
0.00903954
 20
0.0676405
 30
0
  0
VERTEX
  8
72_ARTEK_AKFURNITURE_D2_CH_000
 10
0.00902178
 20
0.0155789
 30
0
  0
VERTEX
  8
72_ARTEK_AKFURNITURE_D2_CH_000
 10
0.00902181
 20
0.015349
 30
0
  0
VERTEX
  8
72_ARTEK_AKFURNITURE_D2_CH_000
 10
0.00902303
 20
0.0131841
 30
0
  0
VERTEX
  8
72_ARTEK_AKFURNITURE_D2_CH_000
 10
0.00902578
 20
0.0110198
 30
0
  0
VERTEX
  8
72_ARTEK_AKFURNITURE_D2_CH_000
 10
0.00903036
 20
0.00885582
 30
0
  0
VERTEX
  8
72_ARTEK_AKFURNITURE_D2_CH_000
 10
0.00903616
 20
0.00669212
 30
0
  0
VERTEX
  8
72_ARTEK_AKFURNITURE_D2_CH_000
 10
0.00904409
 20
0.00452934
 30
0
  0
VERTEX
  8
72_ARTEK_AKFURNITURE_D2_CH_000
 10
0.00905416
 20
0.00236717
 30
0
  0
VERTEX
  8
72_ARTEK_AKFURNITURE_D2_CH_000
 10
0.00905508
 20
0.00203148
 30
0
  0
VERTEX
  8
72_ARTEK_AKFURNITURE_D2_CH_000
 10
0.00905538
 20
0.00168602
 30
0
  0
VERTEX
  8
72_ARTEK_AKFURNITURE_D2_CH_000
 10
0.00905599
 20
0.00133171
 30
0
  0
VERTEX
  8
72_ARTEK_AKFURNITURE_D2_CH_000
 10
0.00905843
 20
0.000970079
 30
0
  0
VERTEX
  8
72_ARTEK_AKFURNITURE_D2_CH_000
 10
0.00906362
 20
0.000602649
 30
0
  0
VERTEX
  8
72_ARTEK_AKFURNITURE_D2_CH_000
 10
0.00907278
 20
0.000230029
 30
0
  0
VERTEX
  8
72_ARTEK_AKFURNITURE_D2_CH_000
 10
0.00908682
 20
-0.000145951
 30
0
  0
VERTEX
  8
72_ARTEK_AKFURNITURE_D2_CH_000
 10
0.00910726
 20
-0.000524061
 30
0
  0
VERTEX
  8
72_ARTEK_AKFURNITURE_D2_CH_000
 10
0.00913534
 20
-0.000903091
 30
0
  0
VERTEX
  8
72_ARTEK_AKFURNITURE_D2_CH_000
 10
0.00917196
 20
-0.00128181
 30
0
  0
VERTEX
  8
72_ARTEK_AKFURNITURE_D2_CH_000
 10
0.00921835
 20
-0.00165901
 30
0
  0
VERTEX
  8
72_ARTEK_AKFURNITURE_D2_CH_000
 10
0.00927572
 20
-0.00203285
 30
0
  0
VERTEX
  8
72_ARTEK_AKFURNITURE_D2_CH_000
 10
0.0093453
 20
-0.00240272
 30
0
  0
VERTEX
  8
72_ARTEK_AKFURNITURE_D2_CH_000
 10
0.00942831
 20
-0.0027671
 30
0
  0
VERTEX
  8
72_ARTEK_AKFURNITURE_D2_CH_000
 10
0.00952566
 20
-0.00312477
 30
0
  0
VERTEX
  8
72_ARTEK_AKFURNITURE_D2_CH_000
 10
0.00963857
 20
-0.0034742
 30
0
  0
VERTEX
  8
72_ARTEK_AKFURNITURE_D2_CH_000
 10
0.00976827
 20
-0.00381416
 30
0
  0
VERTEX
  8
72_ARTEK_AKFURNITURE_D2_CH_000
 10
0.00991598
 20
-0.00414345
 30
0
  0
VERTEX
  8
72_ARTEK_AKFURNITURE_D2_CH_000
 10
0.0100829
 20
-0.00446083
 30
0
  0
VERTEX
  8
72_ARTEK_AKFURNITURE_D2_CH_000
 10
0.01027
 20
-0.00476509
 30
0
  0
VERTEX
  8
72_ARTEK_AKFURNITURE_D2_CH_000
 10
0.0106823
 20
-0.00530891
 30
0
  0
VERTEX
  8
72_ARTEK_AKFURNITURE_D2_CH_000
 10
0.0111654
 20
-0.00581367
 30
0
  0
VERTEX
  8
72_ARTEK_AKFURNITURE_D2_CH_000
 10
0.0117116
 20
-0.0062812
 30
0
  0
VERTEX
  8
72_ARTEK_AKFURNITURE_D2_CH_000
 10
0.0123144
 20
-0.00671211
 30
0
  0
VERTEX
  8
72_ARTEK_AKFURNITURE_D2_CH_000
 10
0.0129665
 20
-0.00710792
 30
0
  0
VERTEX
  8
72_ARTEK_AKFURNITURE_D2_CH_000
 10
0.0136617
 20
-0.00746986
 30
0
  0
VERTEX
  8
72_ARTEK_AKFURNITURE_D2_CH_000
 10
0.0143923
 20
-0.00779915
 30
0
  0
VERTEX
  8
72_ARTEK_AKFURNITURE_D2_CH_000
 10
0.0151519
 20
-0.008097
 30
0
  0
VERTEX
  8
72_ARTEK_AKFURNITURE_D2_CH_000
 10
0.0159334
 20
-0.00836464
 30
0
  0
VERTEX
  8
72_ARTEK_AKFURNITURE_D2_CH_000
 10
0.0167299
 20
-0.00860298
 30
0
  0
VERTEX
  8
72_ARTEK_AKFURNITURE_D2_CH_000
 10
0.0175344
 20
-0.00881386
 30
0
  0
VERTEX
  8
72_ARTEK_AKFURNITURE_D2_CH_000
 10
0.0183401
 20
-0.00899788
 30
0
  0
VERTEX
  8
72_ARTEK_AKFURNITURE_D2_CH_000
 10
0.0191399
 20
-0.00915657
 30
0
  0
VERTEX
  8
72_ARTEK_AKFURNITURE_D2_CH_000
 10
0.019927
 20
-0.00929115
 30
0
  0
VERTEX
  8
72_ARTEK_AKFURNITURE_D2_CH_000
 10
0.0206945
 20
-0.00940285
 30
0
  0
VERTEX
  8
72_ARTEK_AKFURNITURE_D2_CH_000
 10
0.0214355
 20
-0.00949287
 30
0
  0
VERTEX
  8
72_ARTEK_AKFURNITURE_D2_CH_000
 10
0.0221429
 20
-0.00956245
 30
0
  0
VERTEX
  8
72_ARTEK_AKFURNITURE_D2_CH_000
 10
0.0228097
 20
-0.0096125
 30
0
  0
VERTEX
  8
72_ARTEK_AKFURNITURE_D2_CH_000
 10
0.0234292
 20
-0.00964485
 30
0
  0
VERTEX
  8
72_ARTEK_AKFURNITURE_D2_CH_000
 10
0.0239947
 20
-0.00966011
 30
0
  0
VERTEX
  8
72_ARTEK_AKFURNITURE_D2_CH_000
 10
0.0245568
 20
-0.00966041
 30
0
  0
VERTEX
  8
72_ARTEK_AKFURNITURE_D2_CH_000
 10
0.0251742
 20
-0.00964546
 30
0
  0
VERTEX
  8
72_ARTEK_AKFURNITURE_D2_CH_000
 10
0.0258397
 20
-0.00961403
 30
0
  0
VERTEX
  8
72_ARTEK_AKFURNITURE_D2_CH_000
 10
0.0265468
 20
-0.00956489
 30
0
  0
VERTEX
  8
72_ARTEK_AKFURNITURE_D2_CH_000
 10
0.0272881
 20
-0.00949593
 30
0
  0
VERTEX
  8
72_ARTEK_AKFURNITURE_D2_CH_000
 10
0.0280569
 20
-0.0094059
 30
0
  0
VERTEX
  8
72_ARTEK_AKFURNITURE_D2_CH_000
 10
0.0288463
 20
-0.0092939
 30
0
  0
VERTEX
  8
72_ARTEK_AKFURNITURE_D2_CH_000
 10
0.029649
 20
-0.00915779
 30
0
  0
VERTEX
  8
72_ARTEK_AKFURNITURE_D2_CH_000
 10
0.0304583
 20
-0.00899635
 30
0
  0
VERTEX
  8
72_ARTEK_AKFURNITURE_D2_CH_000
 10
0.031267
 20
-0.00880806
 30
0
  0
VERTEX
  8
72_ARTEK_AKFURNITURE_D2_CH_000
 10
0.0320684
 20
-0.00859169
 30
0
  0
VERTEX
  8
72_ARTEK_AKFURNITURE_D2_CH_000
 10
0.0328554
 20
-0.00834541
 30
0
  0
VERTEX
  8
72_ARTEK_AKFURNITURE_D2_CH_000
 10
0.0336208
 20
-0.00806801
 30
0
  0
VERTEX
  8
72_ARTEK_AKFURNITURE_D2_CH_000
 10
0.0343581
 20
-0.00775795
 30
0
  0
VERTEX
  8
72_ARTEK_AKFURNITURE_D2_CH_000
 10
0.03506
 20
-0.00741402
 30
0
  0
VERTEX
  8
72_ARTEK_AKFURNITURE_D2_CH_000
 10
0.0357198
 20
-0.00703438
 30
0
  0
VERTEX
  8
72_ARTEK_AKFURNITURE_D2_CH_000
 10
0.0363302
 20
-0.00661751
 30
0
  0
VERTEX
  8
72_ARTEK_AKFURNITURE_D2_CH_000
 10
0.0368841
 20
-0.00616249
 30
0
  0
VERTEX
  8
72_ARTEK_AKFURNITURE_D2_CH_000
 10
0.0373751
 20
-0.00566719
 30
0
  0
VERTEX
  8
72_ARTEK_AKFURNITURE_D2_CH_000
 10
0.0377959
 20
-0.00513069
 30
0
  0
VERTEX
  8
72_ARTEK_AKFURNITURE_D2_CH_000
 10
0.0379891
 20
-0.00482735
 30
0
  0
VERTEX
  8
72_ARTEK_AKFURNITURE_D2_CH_000
 10
0.0381612
 20
-0.00451118
 30
0
  0
VERTEX
  8
72_ARTEK_AKFURNITURE_D2_CH_000
 10
0.0383135
 20
-0.00418404
 30
0
  0
VERTEX
  8
72_ARTEK_AKFURNITURE_D2_CH_000
 10
0.0384475
 20
-0.00384651
 30
0
  0
VERTEX
  8
72_ARTEK_AKFURNITURE_D2_CH_000
 10
0.0385641
 20
-0.00350044
 30
0
  0
VERTEX
  8
72_ARTEK_AKFURNITURE_D2_CH_000
 10
0.0386642
 20
-0.00314644
 30
0
  0
VERTEX
  8
72_ARTEK_AKFURNITURE_D2_CH_000
 10
0.0387499
 20
-0.00278572
 30
0
  0
VERTEX
  8
72_ARTEK_AKFURNITURE_D2_CH_000
 10
0.0388216
 20
-0.00241981
 30
0
  0
VERTEX
  8
72_ARTEK_AKFURNITURE_D2_CH_000
 10
0.0388808
 20
-0.00204964
 30
0
  0
VERTEX
  8
72_ARTEK_AKFURNITURE_D2_CH_000
 10
0.0389287
 20
-0.00167671
 30
0
  0
VERTEX
  8
72_ARTEK_AKFURNITURE_D2_CH_000
 10
0.0389669
 20
-0.00130165
 30
0
  0
VERTEX
  8
72_ARTEK_AKFURNITURE_D2_CH_000
 10
0.0389959
 20
-0.000926281
 30
0
  0
VERTEX
  8
72_ARTEK_AKFURNITURE_D2_CH_000
 10
0.0390172
 20
-0.000551531
 30
0
  0
VERTEX
  8
72_ARTEK_AKFURNITURE_D2_CH_000
 10
0.0390322
 20
-0.000178601
 30
0
  0
VERTEX
  8
72_ARTEK_AKFURNITURE_D2_CH_000
 10
0.039042
 20
0.000191569
 30
0
  0
VERTEX
  8
72_ARTEK_AKFURNITURE_D2_CH_000
 10
0.0390475
 20
0.000557479
 30
0
  0
VERTEX
  8
72_ARTEK_AKFURNITURE_D2_CH_000
 10
0.0390505
 20
0.000917889
 30
0
  0
VERTEX
  8
72_ARTEK_AKFURNITURE_D2_CH_000
 10
0.0390517
 20
0.0012719
 30
0
  0
VERTEX
  8
72_ARTEK_AKFURNITURE_D2_CH_000
 10
0.0390526
 20
0.00161827
 30
0
  0
SEQEND
  0
POLYLINE
  8
72_ARTEK_AKFURNITURE_D2_CH_000
 66
     1
 70
     0
 10
0.0
 20
0.0
 30
0.0
  0
VERTEX
  8
72_ARTEK_AKFURNITURE_D2_CH_000
 10
0.585847
 20
0.177691
 30
0
  0
VERTEX
  8
72_ARTEK_AKFURNITURE_D2_CH_000
 10
0.585655
 20
0.179641
 30
0
  0
VERTEX
  8
72_ARTEK_AKFURNITURE_D2_CH_000
 10
0.585086
 20
0.181517
 30
0
  0
VERTEX
  8
72_ARTEK_AKFURNITURE_D2_CH_000
 10
0.584162
 20
0.183246
 30
0
  0
VERTEX
  8
72_ARTEK_AKFURNITURE_D2_CH_000
 10
0.582918
 20
0.184762
 30
0
  0
VERTEX
  8
72_ARTEK_AKFURNITURE_D2_CH_000
 10
0.581403
 20
0.186005
 30
0
  0
VERTEX
  8
72_ARTEK_AKFURNITURE_D2_CH_000
 10
0.579674
 20
0.186929
 30
0
  0
VERTEX
  8
72_ARTEK_AKFURNITURE_D2_CH_000
 10
0.577798
 20
0.187498
 30
0
  0
VERTEX
  8
72_ARTEK_AKFURNITURE_D2_CH_000
 10
0.575847
 20
0.187691
 30
0
  0
VERTEX
  8
72_ARTEK_AKFURNITURE_D2_CH_000
 10
0.573896
 20
0.187498
 30
0
  0
VERTEX
  8
72_ARTEK_AKFURNITURE_D2_CH_000
 10
0.57202
 20
0.186929
 30
0
  0
VERTEX
  8
72_ARTEK_AKFURNITURE_D2_CH_000
 10
0.570291
 20
0.186005
 30
0
  0
VERTEX
  8
72_ARTEK_AKFURNITURE_D2_CH_000
 10
0.568776
 20
0.184762
 30
0
  0
VERTEX
  8
72_ARTEK_AKFURNITURE_D2_CH_000
 10
0.567532
 20
0.183246
 30
0
  0
VERTEX
  8
72_ARTEK_AKFURNITURE_D2_CH_000
 10
0.566608
 20
0.181517
 30
0
  0
VERTEX
  8
72_ARTEK_AKFURNITURE_D2_CH_000
 10
0.566039
 20
0.179641
 30
0
  0
VERTEX
  8
72_ARTEK_AKFURNITURE_D2_CH_000
 10
0.565847
 20
0.177691
 30
0
  0
VERTEX
  8
72_ARTEK_AKFURNITURE_D2_CH_000
 10
0.565847
 20
0.177691
 30
0
  0
VERTEX
  8
72_ARTEK_AKFURNITURE_D2_CH_000
 10
0.566039
 20
0.17574
 30
0
  0
VERTEX
  8
72_ARTEK_AKFURNITURE_D2_CH_000
 10
0.566608
 20
0.173864
 30
0
  0
VERTEX
  8
72_ARTEK_AKFURNITURE_D2_CH_000
 10
0.567532
 20
0.172135
 30
0
  0
VERTEX
  8
72_ARTEK_AKFURNITURE_D2_CH_000
 10
0.568776
 20
0.170619
 30
0
  0
VERTEX
  8
72_ARTEK_AKFURNITURE_D2_CH_000
 10
0.570291
 20
0.169376
 30
0
  0
VERTEX
  8
72_ARTEK_AKFURNITURE_D2_CH_000
 10
0.57202
 20
0.168452
 30
0
  0
VERTEX
  8
72_ARTEK_AKFURNITURE_D2_CH_000
 10
0.573896
 20
0.167883
 30
0
  0
VERTEX
  8
72_ARTEK_AKFURNITURE_D2_CH_000
 10
0.575847
 20
0.167691
 30
0
  0
VERTEX
  8
72_ARTEK_AKFURNITURE_D2_CH_000
 10
0.577798
 20
0.167883
 30
0
  0
VERTEX
  8
72_ARTEK_AKFURNITURE_D2_CH_000
 10
0.579674
 20
0.168452
 30
0
  0
VERTEX
  8
72_ARTEK_AKFURNITURE_D2_CH_000
 10
0.581403
 20
0.169376
 30
0
  0
VERTEX
  8
72_ARTEK_AKFURNITURE_D2_CH_000
 10
0.582918
 20
0.170619
 30
0
  0
VERTEX
  8
72_ARTEK_AKFURNITURE_D2_CH_000
 10
0.584162
 20
0.172135
 30
0
  0
VERTEX
  8
72_ARTEK_AKFURNITURE_D2_CH_000
 10
0.585086
 20
0.173864
 30
0
  0
VERTEX
  8
72_ARTEK_AKFURNITURE_D2_CH_000
 10
0.585655
 20
0.17574
 30
0
  0
VERTEX
  8
72_ARTEK_AKFURNITURE_D2_CH_000
 10
0.585847
 20
0.177691
 30
0
  0
SEQEND
  0
POLYLINE
  8
72_ARTEK_AKFURNITURE_D2_CH_000
 66
     1
 70
     0
 10
0.0
 20
0.0
 30
0.0
  0
VERTEX
  8
72_ARTEK_AKFURNITURE_D2_CH_000
 10
0.561147
 20
0.00161827
 30
0
  0
VERTEX
  8
72_ARTEK_AKFURNITURE_D2_CH_000
 10
0.561146
 20
0.00195549
 30
0
  0
VERTEX
  8
72_ARTEK_AKFURNITURE_D2_CH_000
 10
0.561146
 20
0.180221
 30
0
  0
VERTEX
  8
72_ARTEK_AKFURNITURE_D2_CH_000
 10
0.561147
 20
0.180558
 30
0
  0
VERTEX
  8
72_ARTEK_AKFURNITURE_D2_CH_000
 10
0.561148
 20
0.180904
 30
0
  0
VERTEX
  8
72_ARTEK_AKFURNITURE_D2_CH_000
 10
0.561149
 20
0.181258
 30
0
  0
VERTEX
  8
72_ARTEK_AKFURNITURE_D2_CH_000
 10
0.561153
 20
0.181619
 30
0
  0
VERTEX
  8
72_ARTEK_AKFURNITURE_D2_CH_000
 10
0.561158
 20
0.181984
 30
0
  0
VERTEX
  8
72_ARTEK_AKFURNITURE_D2_CH_000
 10
0.561168
 20
0.182355
 30
0
  0
VERTEX
  8
72_ARTEK_AKFURNITURE_D2_CH_000
 10
0.561183
 20
0.182728
 30
0
  0
VERTEX
  8
72_ARTEK_AKFURNITURE_D2_CH_000
 10
0.561204
 20
0.183102
 30
0
  0
VERTEX
  8
72_ARTEK_AKFURNITURE_D2_CH_000
 10
0.561233
 20
0.183478
 30
0
  0
VERTEX
  8
72_ARTEK_AKFURNITURE_D2_CH_000
 10
0.561271
 20
0.183853
 30
0
  0
VERTEX
  8
72_ARTEK_AKFURNITURE_D2_CH_000
 10
0.561319
 20
0.184226
 30
0
  0
VERTEX
  8
72_ARTEK_AKFURNITURE_D2_CH_000
 10
0.561378
 20
0.184596
 30
0
  0
VERTEX
  8
72_ARTEK_AKFURNITURE_D2_CH_000
 10
0.56145
 20
0.184962
 30
0
  0
VERTEX
  8
72_ARTEK_AKFURNITURE_D2_CH_000
 10
0.561536
 20
0.185322
 30
0
  0
VERTEX
  8
72_ARTEK_AKFURNITURE_D2_CH_000
 10
0.561636
 20
0.185676
 30
0
  0
VERTEX
  8
72_ARTEK_AKFURNITURE_D2_CH_000
 10
0.561753
 20
0.186023
 30
0
  0
VERTEX
  8
72_ARTEK_AKFURNITURE_D2_CH_000
 10
0.561886
 20
0.18636
 30
0
  0
VERTEX
  8
72_ARTEK_AKFURNITURE_D2_CH_000
 10
0.562039
 20
0.186687
 30
0
  0
VERTEX
  8
72_ARTEK_AKFURNITURE_D2_CH_000
 10
0.562211
 20
0.187003
 30
0
  0
VERTEX
  8
72_ARTEK_AKFURNITURE_D2_CH_000
 10
0.562404
 20
0.187307
 30
0
  0
VERTEX
  8
72_ARTEK_AKFURNITURE_D2_CH_000
 10
0.562825
 20
0.187843
 30
0
  0
VERTEX
  8
72_ARTEK_AKFURNITURE_D2_CH_000
 10
0.563316
 20
0.188339
 30
0
  0
VERTEX
  8
72_ARTEK_AKFURNITURE_D2_CH_000
 10
0.56387
 20
0.188794
 30
0
  0
VERTEX
  8
72_ARTEK_AKFURNITURE_D2_CH_000
 10
0.56448
 20
0.18921
 30
0
  0
VERTEX
  8
72_ARTEK_AKFURNITURE_D2_CH_000
 10
0.56514
 20
0.18959
 30
0
  0
VERTEX
  8
72_ARTEK_AKFURNITURE_D2_CH_000
 10
0.565842
 20
0.189934
 30
0
  0
VERTEX
  8
72_ARTEK_AKFURNITURE_D2_CH_000
 10
0.566579
 20
0.190244
 30
0
  0
VERTEX
  8
72_ARTEK_AKFURNITURE_D2_CH_000
 10
0.567345
 20
0.190521
 30
0
  0
VERTEX
  8
72_ARTEK_AKFURNITURE_D2_CH_000
 10
0.568132
 20
0.190768
 30
0
  0
VERTEX
  8
72_ARTEK_AKFURNITURE_D2_CH_000
 10
0.568933
 20
0.190984
 30
0
  0
VERTEX
  8
72_ARTEK_AKFURNITURE_D2_CH_000
 10
0.569742
 20
0.191172
 30
0
  0
VERTEX
  8
72_ARTEK_AKFURNITURE_D2_CH_000
 10
0.570551
 20
0.191334
 30
0
  0
VERTEX
  8
72_ARTEK_AKFURNITURE_D2_CH_000
 10
0.571354
 20
0.19147
 30
0
  0
VERTEX
  8
72_ARTEK_AKFURNITURE_D2_CH_000
 10
0.572143
 20
0.191582
 30
0
  0
VERTEX
  8
72_ARTEK_AKFURNITURE_D2_CH_000
 10
0.572912
 20
0.191672
 30
0
  0
VERTEX
  8
72_ARTEK_AKFURNITURE_D2_CH_000
 10
0.573653
 20
0.191741
 30
0
  0
VERTEX
  8
72_ARTEK_AKFURNITURE_D2_CH_000
 10
0.57436
 20
0.19179
 30
0
  0
VERTEX
  8
72_ARTEK_AKFURNITURE_D2_CH_000
 10
0.575026
 20
0.191822
 30
0
  0
VERTEX
  8
72_ARTEK_AKFURNITURE_D2_CH_000
 10
0.575643
 20
0.191836
 30
0
  0
VERTEX
  8
72_ARTEK_AKFURNITURE_D2_CH_000
 10
0.576205
 20
0.191836
 30
0
  0
VERTEX
  8
72_ARTEK_AKFURNITURE_D2_CH_000
 10
0.576771
 20
0.191821
 30
0
  0
VERTEX
  8
72_ARTEK_AKFURNITURE_D2_CH_000
 10
0.57739
 20
0.191789
 30
0
  0
VERTEX
  8
72_ARTEK_AKFURNITURE_D2_CH_000
 10
0.578057
 20
0.191739
 30
0
  0
VERTEX
  8
72_ARTEK_AKFURNITURE_D2_CH_000
 10
0.578765
 20
0.191669
 30
0
  0
VERTEX
  8
72_ARTEK_AKFURNITURE_D2_CH_000
 10
0.579506
 20
0.191579
 30
0
  0
VERTEX
  8
72_ARTEK_AKFURNITURE_D2_CH_000
 10
0.580273
 20
0.191467
 30
0
  0
VERTEX
  8
72_ARTEK_AKFURNITURE_D2_CH_000
 10
0.58106
 20
0.191333
 30
0
  0
VERTEX
  8
72_ARTEK_AKFURNITURE_D2_CH_000
 10
0.58186
 20
0.191174
 30
0
  0
VERTEX
  8
72_ARTEK_AKFURNITURE_D2_CH_000
 10
0.582666
 20
0.19099
 30
0
  0
VERTEX
  8
72_ARTEK_AKFURNITURE_D2_CH_000
 10
0.58347
 20
0.190779
 30
0
  0
VERTEX
  8
72_ARTEK_AKFURNITURE_D2_CH_000
 10
0.584267
 20
0.190541
 30
0
  0
VERTEX
  8
72_ARTEK_AKFURNITURE_D2_CH_000
 10
0.585048
 20
0.190273
 30
0
  0
VERTEX
  8
72_ARTEK_AKFURNITURE_D2_CH_000
 10
0.585808
 20
0.189975
 30
0
  0
VERTEX
  8
72_ARTEK_AKFURNITURE_D2_CH_000
 10
0.586538
 20
0.189646
 30
0
  0
VERTEX
  8
72_ARTEK_AKFURNITURE_D2_CH_000
 10
0.587233
 20
0.189284
 30
0
  0
VERTEX
  8
72_ARTEK_AKFURNITURE_D2_CH_000
 10
0.587886
 20
0.188888
 30
0
  0
VERTEX
  8
72_ARTEK_AKFURNITURE_D2_CH_000
 10
0.588488
 20
0.188457
 30
0
  0
VERTEX
  8
72_ARTEK_AKFURNITURE_D2_CH_000
 10
0.589035
 20
0.18799
 30
0
  0
VERTEX
  8
72_ARTEK_AKFURNITURE_D2_CH_000
 10
0.589518
 20
0.187485
 30
0
  0
VERTEX
  8
72_ARTEK_AKFURNITURE_D2_CH_000
 10
0.58993
 20
0.186941
 30
0
  0
VERTEX
  8
72_ARTEK_AKFURNITURE_D2_CH_000
 10
0.590117
 20
0.186637
 30
0
  0
VERTEX
  8
72_ARTEK_AKFURNITURE_D2_CH_000
 10
0.590284
 20
0.18632
 30
0
  0
VERTEX
  8
72_ARTEK_AKFURNITURE_D2_CH_000
 10
0.590432
 20
0.18599
 30
0
  0
VERTEX
  8
72_ARTEK_AKFURNITURE_D2_CH_000
 10
0.590561
 20
0.18565
 30
0
  0
VERTEX
  8
72_ARTEK_AKFURNITURE_D2_CH_000
 10
0.590674
 20
0.185301
 30
0
  0
VERTEX
  8
72_ARTEK_AKFURNITURE_D2_CH_000
 10
0.590772
 20
0.184943
 30
0
  0
VERTEX
  8
72_ARTEK_AKFURNITURE_D2_CH_000
 10
0.590855
 20
0.184579
 30
0
  0
VERTEX
  8
72_ARTEK_AKFURNITURE_D2_CH_000
 10
0.590924
 20
0.184209
 30
0
  0
VERTEX
  8
72_ARTEK_AKFURNITURE_D2_CH_000
 10
0.590982
 20
0.183835
 30
0
  0
VERTEX
  8
72_ARTEK_AKFURNITURE_D2_CH_000
 10
0.591028
 20
0.183458
 30
0
  0
VERTEX
  8
72_ARTEK_AKFURNITURE_D2_CH_000
 10
0.591065
 20
0.183079
 30
0
  0
VERTEX
  8
72_ARTEK_AKFURNITURE_D2_CH_000
 10
0.591093
 20
0.1827
 30
0
  0
VERTEX
  8
72_ARTEK_AKFURNITURE_D2_CH_000
 10
0.591113
 20
0.182322
 30
0
  0
VERTEX
  8
72_ARTEK_AKFURNITURE_D2_CH_000
 10
0.591127
 20
0.181946
 30
0
  0
VERTEX
  8
72_ARTEK_AKFURNITURE_D2_CH_000
 10
0.591136
 20
0.181573
 30
0
  0
VERTEX
  8
72_ARTEK_AKFURNITURE_D2_CH_000
 10
0.591142
 20
0.181206
 30
0
  0
VERTEX
  8
72_ARTEK_AKFURNITURE_D2_CH_000
 10
0.591144
 20
0.180844
 30
0
  0
VERTEX
  8
72_ARTEK_AKFURNITURE_D2_CH_000
 10
0.591145
 20
0.18049
 30
0
  0
VERTEX
  8
72_ARTEK_AKFURNITURE_D2_CH_000
 10
0.591145
 20
0.180145
 30
0
  0
VERTEX
  8
72_ARTEK_AKFURNITURE_D2_CH_000
 10
0.591146
 20
0.179809
 30
0
  0
VERTEX
  8
72_ARTEK_AKFURNITURE_D2_CH_000
 10
0.591156
 20
0.177647
 30
0
  0
VERTEX
  8
72_ARTEK_AKFURNITURE_D2_CH_000
 10
0.591164
 20
0.175484
 30
0
  0
VERTEX
  8
72_ARTEK_AKFURNITURE_D2_CH_000
 10
0.59117
 20
0.17332
 30
0
  0
VERTEX
  8
72_ARTEK_AKFURNITURE_D2_CH_000
 10
0.591174
 20
0.171156
 30
0
  0
VERTEX
  8
72_ARTEK_AKFURNITURE_D2_CH_000
 10
0.591177
 20
0.168992
 30
0
  0
VERTEX
  8
72_ARTEK_AKFURNITURE_D2_CH_000
 10
0.591178
 20
0.166827
 30
0
  0
VERTEX
  8
72_ARTEK_AKFURNITURE_D2_CH_000
 10
0.591178
 20
0.166597
 30
0
  0
VERTEX
  8
72_ARTEK_AKFURNITURE_D2_CH_000
 10
0.59116
 20
0.114536
 30
0
  0
VERTEX
  8
72_ARTEK_AKFURNITURE_D2_CH_000
 10
0.59116
 20
0.0676405
 30
0
  0
VERTEX
  8
72_ARTEK_AKFURNITURE_D2_CH_000
 10
0.591178
 20
0.0155789
 30
0
  0
VERTEX
  8
72_ARTEK_AKFURNITURE_D2_CH_000
 10
0.591178
 20
0.015349
 30
0
  0
VERTEX
  8
72_ARTEK_AKFURNITURE_D2_CH_000
 10
0.591177
 20
0.0131841
 30
0
  0
VERTEX
  8
72_ARTEK_AKFURNITURE_D2_CH_000
 10
0.591174
 20
0.0110198
 30
0
  0
VERTEX
  8
72_ARTEK_AKFURNITURE_D2_CH_000
 10
0.59117
 20
0.00885582
 30
0
  0
VERTEX
  8
72_ARTEK_AKFURNITURE_D2_CH_000
 10
0.591164
 20
0.00669212
 30
0
  0
VERTEX
  8
72_ARTEK_AKFURNITURE_D2_CH_000
 10
0.591156
 20
0.00452934
 30
0
  0
VERTEX
  8
72_ARTEK_AKFURNITURE_D2_CH_000
 10
0.591146
 20
0.00236717
 30
0
  0
VERTEX
  8
72_ARTEK_AKFURNITURE_D2_CH_000
 10
0.591145
 20
0.00203148
 30
0
  0
VERTEX
  8
72_ARTEK_AKFURNITURE_D2_CH_000
 10
0.591145
 20
0.00168602
 30
0
  0
VERTEX
  8
72_ARTEK_AKFURNITURE_D2_CH_000
 10
0.591144
 20
0.00133171
 30
0
  0
VERTEX
  8
72_ARTEK_AKFURNITURE_D2_CH_000
 10
0.591142
 20
0.000970079
 30
0
  0
VERTEX
  8
72_ARTEK_AKFURNITURE_D2_CH_000
 10
0.591136
 20
0.000602649
 30
0
  0
VERTEX
  8
72_ARTEK_AKFURNITURE_D2_CH_000
 10
0.591127
 20
0.000230029
 30
0
  0
VERTEX
  8
72_ARTEK_AKFURNITURE_D2_CH_000
 10
0.591113
 20
-0.000145951
 30
0
  0
VERTEX
  8
72_ARTEK_AKFURNITURE_D2_CH_000
 10
0.591093
 20
-0.000524061
 30
0
  0
VERTEX
  8
72_ARTEK_AKFURNITURE_D2_CH_000
 10
0.591065
 20
-0.000903091
 30
0
  0
VERTEX
  8
72_ARTEK_AKFURNITURE_D2_CH_000
 10
0.591028
 20
-0.00128181
 30
0
  0
VERTEX
  8
72_ARTEK_AKFURNITURE_D2_CH_000
 10
0.590982
 20
-0.00165901
 30
0
  0
VERTEX
  8
72_ARTEK_AKFURNITURE_D2_CH_000
 10
0.590924
 20
-0.00203285
 30
0
  0
VERTEX
  8
72_ARTEK_AKFURNITURE_D2_CH_000
 10
0.590855
 20
-0.00240272
 30
0
  0
VERTEX
  8
72_ARTEK_AKFURNITURE_D2_CH_000
 10
0.590772
 20
-0.0027671
 30
0
  0
VERTEX
  8
72_ARTEK_AKFURNITURE_D2_CH_000
 10
0.590674
 20
-0.00312477
 30
0
  0
VERTEX
  8
72_ARTEK_AKFURNITURE_D2_CH_000
 10
0.590561
 20
-0.0034742
 30
0
  0
VERTEX
  8
72_ARTEK_AKFURNITURE_D2_CH_000
 10
0.590432
 20
-0.00381416
 30
0
  0
VERTEX
  8
72_ARTEK_AKFURNITURE_D2_CH_000
 10
0.590284
 20
-0.00414345
 30
0
  0
VERTEX
  8
72_ARTEK_AKFURNITURE_D2_CH_000
 10
0.590117
 20
-0.00446083
 30
0
  0
VERTEX
  8
72_ARTEK_AKFURNITURE_D2_CH_000
 10
0.58993
 20
-0.00476509
 30
0
  0
VERTEX
  8
72_ARTEK_AKFURNITURE_D2_CH_000
 10
0.589518
 20
-0.00530891
 30
0
  0
VERTEX
  8
72_ARTEK_AKFURNITURE_D2_CH_000
 10
0.589035
 20
-0.00581367
 30
0
  0
VERTEX
  8
72_ARTEK_AKFURNITURE_D2_CH_000
 10
0.588488
 20
-0.0062812
 30
0
  0
VERTEX
  8
72_ARTEK_AKFURNITURE_D2_CH_000
 10
0.587886
 20
-0.00671211
 30
0
  0
VERTEX
  8
72_ARTEK_AKFURNITURE_D2_CH_000
 10
0.587233
 20
-0.00710792
 30
0
  0
VERTEX
  8
72_ARTEK_AKFURNITURE_D2_CH_000
 10
0.586538
 20
-0.00746986
 30
0
  0
VERTEX
  8
72_ARTEK_AKFURNITURE_D2_CH_000
 10
0.585808
 20
-0.00779915
 30
0
  0
VERTEX
  8
72_ARTEK_AKFURNITURE_D2_CH_000
 10
0.585048
 20
-0.008097
 30
0
  0
VERTEX
  8
72_ARTEK_AKFURNITURE_D2_CH_000
 10
0.584267
 20
-0.00836464
 30
0
  0
VERTEX
  8
72_ARTEK_AKFURNITURE_D2_CH_000
 10
0.58347
 20
-0.00860298
 30
0
  0
VERTEX
  8
72_ARTEK_AKFURNITURE_D2_CH_000
 10
0.582666
 20
-0.00881386
 30
0
  0
VERTEX
  8
72_ARTEK_AKFURNITURE_D2_CH_000
 10
0.58186
 20
-0.00899788
 30
0
  0
VERTEX
  8
72_ARTEK_AKFURNITURE_D2_CH_000
 10
0.58106
 20
-0.00915657
 30
0
  0
VERTEX
  8
72_ARTEK_AKFURNITURE_D2_CH_000
 10
0.580273
 20
-0.00929115
 30
0
  0
VERTEX
  8
72_ARTEK_AKFURNITURE_D2_CH_000
 10
0.579506
 20
-0.00940285
 30
0
  0
VERTEX
  8
72_ARTEK_AKFURNITURE_D2_CH_000
 10
0.578765
 20
-0.00949287
 30
0
  0
VERTEX
  8
72_ARTEK_AKFURNITURE_D2_CH_000
 10
0.578057
 20
-0.00956245
 30
0
  0
VERTEX
  8
72_ARTEK_AKFURNITURE_D2_CH_000
 10
0.57739
 20
-0.0096125
 30
0
  0
VERTEX
  8
72_ARTEK_AKFURNITURE_D2_CH_000
 10
0.576771
 20
-0.00964485
 30
0
  0
VERTEX
  8
72_ARTEK_AKFURNITURE_D2_CH_000
 10
0.576205
 20
-0.00966011
 30
0
  0
VERTEX
  8
72_ARTEK_AKFURNITURE_D2_CH_000
 10
0.575643
 20
-0.00966041
 30
0
  0
VERTEX
  8
72_ARTEK_AKFURNITURE_D2_CH_000
 10
0.575026
 20
-0.00964546
 30
0
  0
VERTEX
  8
72_ARTEK_AKFURNITURE_D2_CH_000
 10
0.57436
 20
-0.00961403
 30
0
  0
VERTEX
  8
72_ARTEK_AKFURNITURE_D2_CH_000
 10
0.573653
 20
-0.00956489
 30
0
  0
VERTEX
  8
72_ARTEK_AKFURNITURE_D2_CH_000
 10
0.572912
 20
-0.00949593
 30
0
  0
VERTEX
  8
72_ARTEK_AKFURNITURE_D2_CH_000
 10
0.572143
 20
-0.0094059
 30
0
  0
VERTEX
  8
72_ARTEK_AKFURNITURE_D2_CH_000
 10
0.571354
 20
-0.0092939
 30
0
  0
VERTEX
  8
72_ARTEK_AKFURNITURE_D2_CH_000
 10
0.570551
 20
-0.00915779
 30
0
  0
VERTEX
  8
72_ARTEK_AKFURNITURE_D2_CH_000
 10
0.569742
 20
-0.00899635
 30
0
  0
VERTEX
  8
72_ARTEK_AKFURNITURE_D2_CH_000
 10
0.568933
 20
-0.00880806
 30
0
  0
VERTEX
  8
72_ARTEK_AKFURNITURE_D2_CH_000
 10
0.568132
 20
-0.00859169
 30
0
  0
VERTEX
  8
72_ARTEK_AKFURNITURE_D2_CH_000
 10
0.567345
 20
-0.00834541
 30
0
  0
VERTEX
  8
72_ARTEK_AKFURNITURE_D2_CH_000
 10
0.566579
 20
-0.00806801
 30
0
  0
VERTEX
  8
72_ARTEK_AKFURNITURE_D2_CH_000
 10
0.565842
 20
-0.00775795
 30
0
  0
VERTEX
  8
72_ARTEK_AKFURNITURE_D2_CH_000
 10
0.56514
 20
-0.00741402
 30
0
  0
VERTEX
  8
72_ARTEK_AKFURNITURE_D2_CH_000
 10
0.56448
 20
-0.00703438
 30
0
  0
VERTEX
  8
72_ARTEK_AKFURNITURE_D2_CH_000
 10
0.56387
 20
-0.00661751
 30
0
  0
VERTEX
  8
72_ARTEK_AKFURNITURE_D2_CH_000
 10
0.563316
 20
-0.00616249
 30
0
  0
VERTEX
  8
72_ARTEK_AKFURNITURE_D2_CH_000
 10
0.562825
 20
-0.00566719
 30
0
  0
VERTEX
  8
72_ARTEK_AKFURNITURE_D2_CH_000
 10
0.562404
 20
-0.00513069
 30
0
  0
VERTEX
  8
72_ARTEK_AKFURNITURE_D2_CH_000
 10
0.562211
 20
-0.00482735
 30
0
  0
VERTEX
  8
72_ARTEK_AKFURNITURE_D2_CH_000
 10
0.562039
 20
-0.00451118
 30
0
  0
VERTEX
  8
72_ARTEK_AKFURNITURE_D2_CH_000
 10
0.561886
 20
-0.00418404
 30
0
  0
VERTEX
  8
72_ARTEK_AKFURNITURE_D2_CH_000
 10
0.561753
 20
-0.00384651
 30
0
  0
VERTEX
  8
72_ARTEK_AKFURNITURE_D2_CH_000
 10
0.561636
 20
-0.00350044
 30
0
  0
VERTEX
  8
72_ARTEK_AKFURNITURE_D2_CH_000
 10
0.561536
 20
-0.00314644
 30
0
  0
VERTEX
  8
72_ARTEK_AKFURNITURE_D2_CH_000
 10
0.56145
 20
-0.00278572
 30
0
  0
VERTEX
  8
72_ARTEK_AKFURNITURE_D2_CH_000
 10
0.561378
 20
-0.00241981
 30
0
  0
VERTEX
  8
72_ARTEK_AKFURNITURE_D2_CH_000
 10
0.561319
 20
-0.00204964
 30
0
  0
VERTEX
  8
72_ARTEK_AKFURNITURE_D2_CH_000
 10
0.561271
 20
-0.00167671
 30
0
  0
VERTEX
  8
72_ARTEK_AKFURNITURE_D2_CH_000
 10
0.561233
 20
-0.00130165
 30
0
  0
VERTEX
  8
72_ARTEK_AKFURNITURE_D2_CH_000
 10
0.561204
 20
-0.000926281
 30
0
  0
VERTEX
  8
72_ARTEK_AKFURNITURE_D2_CH_000
 10
0.561183
 20
-0.000551531
 30
0
  0
VERTEX
  8
72_ARTEK_AKFURNITURE_D2_CH_000
 10
0.561168
 20
-0.000178601
 30
0
  0
VERTEX
  8
72_ARTEK_AKFURNITURE_D2_CH_000
 10
0.561158
 20
0.000191569
 30
0
  0
VERTEX
  8
72_ARTEK_AKFURNITURE_D2_CH_000
 10
0.561153
 20
0.000557479
 30
0
  0
VERTEX
  8
72_ARTEK_AKFURNITURE_D2_CH_000
 10
0.561149
 20
0.000917889
 30
0
  0
VERTEX
  8
72_ARTEK_AKFURNITURE_D2_CH_000
 10
0.561148
 20
0.0012719
 30
0
  0
VERTEX
  8
72_ARTEK_AKFURNITURE_D2_CH_000
 10
0.561147
 20
0.00161827
 30
0
  0
SEQEND
  0
POLYLINE
  8
72_ARTEK_AKFURNITURE_D2SNAP
 66
     1
 70
     0
 10
0.0
 20
0.0
 30
0.0
  0
VERTEX
  8
72_ARTEK_AKFURNITURE_D2SNAP
 10
0.3126
 20
-0
 30
0
  0
VERTEX
  8
72_ARTEK_AKFURNITURE_D2SNAP
 10
0.31236
 20
0.00243863
 30
0
  0
VERTEX
  8
72_ARTEK_AKFURNITURE_D2SNAP
 10
0.311648
 20
0.00478354
 30
0
  0
VERTEX
  8
72_ARTEK_AKFURNITURE_D2SNAP
 10
0.310493
 20
0.00694463
 30
0
  0
VERTEX
  8
72_ARTEK_AKFURNITURE_D2SNAP
 10
0.308939
 20
0.00883883
 30
0
  0
VERTEX
  8
72_ARTEK_AKFURNITURE_D2SNAP
 10
0.307045
 20
0.0103934
 30
0
  0
VERTEX
  8
72_ARTEK_AKFURNITURE_D2SNAP
 10
0.304884
 20
0.0115485
 30
0
  0
VERTEX
  8
72_ARTEK_AKFURNITURE_D2SNAP
 10
0.302539
 20
0.0122598
 30
0
  0
VERTEX
  8
72_ARTEK_AKFURNITURE_D2SNAP
 10
0.3001
 20
0.0125
 30
0
  0
VERTEX
  8
72_ARTEK_AKFURNITURE_D2SNAP
 10
0.297661
 20
0.0122598
 30
0
  0
VERTEX
  8
72_ARTEK_AKFURNITURE_D2SNAP
 10
0.295316
 20
0.0115485
 30
0
  0
VERTEX
  8
72_ARTEK_AKFURNITURE_D2SNAP
 10
0.293155
 20
0.0103934
 30
0
  0
VERTEX
  8
72_ARTEK_AKFURNITURE_D2SNAP
 10
0.291261
 20
0.00883883
 30
0
  0
VERTEX
  8
72_ARTEK_AKFURNITURE_D2SNAP
 10
0.289707
 20
0.00694463
 30
0
  0
VERTEX
  8
72_ARTEK_AKFURNITURE_D2SNAP
 10
0.288552
 20
0.00478354
 30
0
  0
VERTEX
  8
72_ARTEK_AKFURNITURE_D2SNAP
 10
0.28784
 20
0.00243863
 30
0
  0
VERTEX
  8
72_ARTEK_AKFURNITURE_D2SNAP
 10
0.2876
 20
3.15316e-018
 30
0
  0
VERTEX
  8
72_ARTEK_AKFURNITURE_D2SNAP
 10
0.28784
 20
-0.00243863
 30
0
  0
VERTEX
  8
72_ARTEK_AKFURNITURE_D2SNAP
 10
0.288552
 20
-0.00478354
 30
0
  0
VERTEX
  8
72_ARTEK_AKFURNITURE_D2SNAP
 10
0.289707
 20
-0.00694463
 30
0
  0
VERTEX
  8
72_ARTEK_AKFURNITURE_D2SNAP
 10
0.291261
 20
-0.00883883
 30
0
  0
VERTEX
  8
72_ARTEK_AKFURNITURE_D2SNAP
 10
0.293155
 20
-0.0103934
 30
0
  0
VERTEX
  8
72_ARTEK_AKFURNITURE_D2SNAP
 10
0.295316
 20
-0.0115485
 30
0
  0
VERTEX
  8
72_ARTEK_AKFURNITURE_D2SNAP
 10
0.297661
 20
-0.0122598
 30
0
  0
VERTEX
  8
72_ARTEK_AKFURNITURE_D2SNAP
 10
0.3001
 20
-0.0125
 30
0
  0
VERTEX
  8
72_ARTEK_AKFURNITURE_D2SNAP
 10
0.302539
 20
-0.0122598
 30
0
  0
VERTEX
  8
72_ARTEK_AKFURNITURE_D2SNAP
 10
0.304884
 20
-0.0115485
 30
0
  0
VERTEX
  8
72_ARTEK_AKFURNITURE_D2SNAP
 10
0.307045
 20
-0.0103934
 30
0
  0
VERTEX
  8
72_ARTEK_AKFURNITURE_D2SNAP
 10
0.308939
 20
-0.00883883
 30
0
  0
VERTEX
  8
72_ARTEK_AKFURNITURE_D2SNAP
 10
0.310493
 20
-0.00694463
 30
0
  0
VERTEX
  8
72_ARTEK_AKFURNITURE_D2SNAP
 10
0.311648
 20
-0.00478354
 30
0
  0
VERTEX
  8
72_ARTEK_AKFURNITURE_D2SNAP
 10
0.31236
 20
-0.00243863
 30
0
  0
VERTEX
  8
72_ARTEK_AKFURNITURE_D2SNAP
 10
0.3126
 20
-0
 30
0
  0
SEQEND
  0
POLYLINE
  8
72_ARTEK_AKFURNITURE_D2SNAP
 66
     1
 70
     0
 10
0.0
 20
0.0
 30
0.0
  0
VERTEX
  8
72_ARTEK_AKFURNITURE_D2SNAP
 10
0.282422
 20
-0.0176777
 30
0
  0
VERTEX
  8
72_ARTEK_AKFURNITURE_D2SNAP
 10
0.317778
 20
0.0176777
 30
0
  0
SEQEND
  0
POLYLINE
  8
72_ARTEK_AKFURNITURE_D2SNAP
 66
     1
 70
     0
 10
0.0
 20
0.0
 30
0.0
  0
VERTEX
  8
72_ARTEK_AKFURNITURE_D2SNAP
 10
0.282422
 20
0.0176777
 30
0
  0
VERTEX
  8
72_ARTEK_AKFURNITURE_D2SNAP
 10
0.317778
 20
-0.0176777
 30
0
  0
SEQEND
  0
POLYLINE
  8
72_ARTEK_AKFURNITURE_D2_CH_FRA
 66
     1
 70
     0
 10
0.0
 20
0.0
 30
0.0
  0
VERTEX
  8
72_ARTEK_AKFURNITURE_D2_CH_FRA
 10
0.542016
 20
0.0746508
 30
0
  0
VERTEX
  8
72_ARTEK_AKFURNITURE_D2_CH_FRA
 10
0.536035
 20
0.120608
 30
0
  0
VERTEX
  8
72_ARTEK_AKFURNITURE_D2_CH_FRA
 10
0.536029
 20
0.120661
 30
0
  0
VERTEX
  8
72_ARTEK_AKFURNITURE_D2_CH_FRA
 10
0.507486
 20
0.120661
 30
0
  0
VERTEX
  8
72_ARTEK_AKFURNITURE_D2_CH_FRA
 10
0.507662
 20
0.119132
 30
0
  0
VERTEX
  8
72_ARTEK_AKFURNITURE_D2_CH_FRA
 10
0.507991
 20
0.117589
 30
0
  0
VERTEX
  8
72_ARTEK_AKFURNITURE_D2_CH_FRA
 10
0.508453
 20
0.116112
 30
0
  0
VERTEX
  8
72_ARTEK_AKFURNITURE_D2_CH_FRA
 10
0.509036
 20
0.114699
 30
0
  0
VERTEX
  8
72_ARTEK_AKFURNITURE_D2_CH_FRA
 10
0.509732
 20
0.113346
 30
0
  0
VERTEX
  8
72_ARTEK_AKFURNITURE_D2_CH_FRA
 10
0.510529
 20
0.112048
 30
0
  0
VERTEX
  8
72_ARTEK_AKFURNITURE_D2_CH_FRA
 10
0.511417
 20
0.110802
 30
0
  0
VERTEX
  8
72_ARTEK_AKFURNITURE_D2_CH_FRA
 10
0.512385
 20
0.109603
 30
0
  0
VERTEX
  8
72_ARTEK_AKFURNITURE_D2_CH_FRA
 10
0.513424
 20
0.108448
 30
0
  0
VERTEX
  8
72_ARTEK_AKFURNITURE_D2_CH_FRA
 10
0.514523
 20
0.107333
 30
0
  0
VERTEX
  8
72_ARTEK_AKFURNITURE_D2_CH_FRA
 10
0.51567
 20
0.106253
 30
0
  0
VERTEX
  8
72_ARTEK_AKFURNITURE_D2_CH_FRA
 10
0.516857
 20
0.105205
 30
0
  0
VERTEX
  8
72_ARTEK_AKFURNITURE_D2_CH_FRA
 10
0.518072
 20
0.104186
 30
0
  0
VERTEX
  8
72_ARTEK_AKFURNITURE_D2_CH_FRA
 10
0.519305
 20
0.10319
 30
0
  0
VERTEX
  8
72_ARTEK_AKFURNITURE_D2_CH_FRA
 10
0.520546
 20
0.102214
 30
0
  0
VERTEX
  8
72_ARTEK_AKFURNITURE_D2_CH_FRA
 10
0.521785
 20
0.101255
 30
0
  0
VERTEX
  8
72_ARTEK_AKFURNITURE_D2_CH_FRA
 10
0.52301
 20
0.100308
 30
0
  0
VERTEX
  8
72_ARTEK_AKFURNITURE_D2_CH_FRA
 10
0.524211
 20
0.0993685
 30
0
  0
VERTEX
  8
72_ARTEK_AKFURNITURE_D2_CH_FRA
 10
0.525379
 20
0.0984338
 30
0
  0
VERTEX
  8
72_ARTEK_AKFURNITURE_D2_CH_FRA
 10
0.526502
 20
0.0974995
 30
0
  0
VERTEX
  8
72_ARTEK_AKFURNITURE_D2_CH_FRA
 10
0.527586
 20
0.0965464
 30
0
  0
VERTEX
  8
72_ARTEK_AKFURNITURE_D2_CH_FRA
 10
0.528625
 20
0.095572
 30
0
  0
VERTEX
  8
72_ARTEK_AKFURNITURE_D2_CH_FRA
 10
0.529622
 20
0.0945766
 30
0
  0
VERTEX
  8
72_ARTEK_AKFURNITURE_D2_CH_FRA
 10
0.53058
 20
0.0935607
 30
0
  0
VERTEX
  8
72_ARTEK_AKFURNITURE_D2_CH_FRA
 10
0.531499
 20
0.0925245
 30
0
  0
VERTEX
  8
72_ARTEK_AKFURNITURE_D2_CH_FRA
 10
0.532381
 20
0.0914681
 30
0
  0
VERTEX
  8
72_ARTEK_AKFURNITURE_D2_CH_FRA
 10
0.53323
 20
0.0903921
 30
0
  0
VERTEX
  8
72_ARTEK_AKFURNITURE_D2_CH_FRA
 10
0.534045
 20
0.0892966
 30
0
  0
VERTEX
  8
72_ARTEK_AKFURNITURE_D2_CH_FRA
 10
0.53483
 20
0.0881821
 30
0
  0
VERTEX
  8
72_ARTEK_AKFURNITURE_D2_CH_FRA
 10
0.535586
 20
0.0870489
 30
0
  0
VERTEX
  8
72_ARTEK_AKFURNITURE_D2_CH_FRA
 10
0.536316
 20
0.085897
 30
0
  0
VERTEX
  8
72_ARTEK_AKFURNITURE_D2_CH_FRA
 10
0.53702
 20
0.0847271
 30
0
  0
VERTEX
  8
72_ARTEK_AKFURNITURE_D2_CH_FRA
 10
0.5377
 20
0.0835394
 30
0
  0
VERTEX
  8
72_ARTEK_AKFURNITURE_D2_CH_FRA
 10
0.53836
 20
0.0823341
 30
0
  0
VERTEX
  8
72_ARTEK_AKFURNITURE_D2_CH_FRA
 10
0.539
 20
0.0811115
 30
0
  0
VERTEX
  8
72_ARTEK_AKFURNITURE_D2_CH_FRA
 10
0.539622
 20
0.0798721
 30
0
  0
VERTEX
  8
72_ARTEK_AKFURNITURE_D2_CH_FRA
 10
0.540229
 20
0.078616
 30
0
  0
VERTEX
  8
72_ARTEK_AKFURNITURE_D2_CH_FRA
 10
0.540822
 20
0.0773437
 30
0
  0
VERTEX
  8
72_ARTEK_AKFURNITURE_D2_CH_FRA
 10
0.541403
 20
0.0760554
 30
0
  0
VERTEX
  8
72_ARTEK_AKFURNITURE_D2_CH_FRA
 10
0.541974
 20
0.0747514
 30
0
  0
VERTEX
  8
72_ARTEK_AKFURNITURE_D2_CH_FRA
 10
0.542016
 20
0.0746508
 30
0
  0
SEQEND
  0
POLYLINE
  8
72_ARTEK_AKFURNITURE_D2_CH_FRA
 66
     1
 70
     0
 10
0.0
 20
0.0
 30
0.0
  0
VERTEX
  8
72_ARTEK_AKFURNITURE_D2_CH_FRA
 10
0.0581836
 20
0.0746508
 30
0
  0
VERTEX
  8
72_ARTEK_AKFURNITURE_D2_CH_FRA
 10
0.0641649
 20
0.120608
 30
0
  0
VERTEX
  8
72_ARTEK_AKFURNITURE_D2_CH_FRA
 10
0.0641712
 20
0.120661
 30
0
  0
VERTEX
  8
72_ARTEK_AKFURNITURE_D2_CH_FRA
 10
0.0927143
 20
0.120661
 30
0
  0
VERTEX
  8
72_ARTEK_AKFURNITURE_D2_CH_FRA
 10
0.092538
 20
0.119132
 30
0
  0
VERTEX
  8
72_ARTEK_AKFURNITURE_D2_CH_FRA
 10
0.0922091
 20
0.117589
 30
0
  0
VERTEX
  8
72_ARTEK_AKFURNITURE_D2_CH_FRA
 10
0.0917473
 20
0.116112
 30
0
  0
VERTEX
  8
72_ARTEK_AKFURNITURE_D2_CH_FRA
 10
0.0911635
 20
0.114699
 30
0
  0
VERTEX
  8
72_ARTEK_AKFURNITURE_D2_CH_FRA
 10
0.0904677
 20
0.113346
 30
0
  0
VERTEX
  8
72_ARTEK_AKFURNITURE_D2_CH_FRA
 10
0.0896709
 20
0.112048
 30
0
  0
VERTEX
  8
72_ARTEK_AKFURNITURE_D2_CH_FRA
 10
0.0887829
 20
0.110802
 30
0
  0
VERTEX
  8
72_ARTEK_AKFURNITURE_D2_CH_FRA
 10
0.0878145
 20
0.109603
 30
0
  0
VERTEX
  8
72_ARTEK_AKFURNITURE_D2_CH_FRA
 10
0.0867757
 20
0.108448
 30
0
  0
VERTEX
  8
72_ARTEK_AKFURNITURE_D2_CH_FRA
 10
0.0856774
 20
0.107333
 30
0
  0
VERTEX
  8
72_ARTEK_AKFURNITURE_D2_CH_FRA
 10
0.0845296
 20
0.106253
 30
0
  0
VERTEX
  8
72_ARTEK_AKFURNITURE_D2_CH_FRA
 10
0.0833431
 20
0.105205
 30
0
  0
VERTEX
  8
72_ARTEK_AKFURNITURE_D2_CH_FRA
 10
0.0821279
 20
0.104186
 30
0
  0
VERTEX
  8
72_ARTEK_AKFURNITURE_D2_CH_FRA
 10
0.0808947
 20
0.10319
 30
0
  0
VERTEX
  8
72_ARTEK_AKFURNITURE_D2_CH_FRA
 10
0.0796538
 20
0.102214
 30
0
  0
VERTEX
  8
72_ARTEK_AKFURNITURE_D2_CH_FRA
 10
0.0784154
 20
0.101255
 30
0
  0
VERTEX
  8
72_ARTEK_AKFURNITURE_D2_CH_FRA
 10
0.0771904
 20
0.100308
 30
0
  0
VERTEX
  8
72_ARTEK_AKFURNITURE_D2_CH_FRA
 10
0.0759887
 20
0.0993685
 30
0
  0
VERTEX
  8
72_ARTEK_AKFURNITURE_D2_CH_FRA
 10
0.0748211
 20
0.0984338
 30
0
  0
VERTEX
  8
72_ARTEK_AKFURNITURE_D2_CH_FRA
 10
0.0736977
 20
0.0974995
 30
0
  0
VERTEX
  8
72_ARTEK_AKFURNITURE_D2_CH_FRA
 10
0.0726143
 20
0.0965464
 30
0
  0
VERTEX
  8
72_ARTEK_AKFURNITURE_D2_CH_FRA
 10
0.0715752
 20
0.095572
 30
0
  0
VERTEX
  8
72_ARTEK_AKFURNITURE_D2_CH_FRA
 10
0.0705776
 20
0.0945766
 30
0
  0
VERTEX
  8
72_ARTEK_AKFURNITURE_D2_CH_FRA
 10
0.0696203
 20
0.0935607
 30
0
  0
VERTEX
  8
72_ARTEK_AKFURNITURE_D2_CH_FRA
 10
0.0687014
 20
0.0925245
 30
0
  0
VERTEX
  8
72_ARTEK_AKFURNITURE_D2_CH_FRA
 10
0.0678185
 20
0.0914681
 30
0
  0
VERTEX
  8
72_ARTEK_AKFURNITURE_D2_CH_FRA
 10
0.0669704
 20
0.0903921
 30
0
  0
VERTEX
  8
72_ARTEK_AKFURNITURE_D2_CH_FRA
 10
0.0661547
 20
0.0892966
 30
0
  0
VERTEX
  8
72_ARTEK_AKFURNITURE_D2_CH_FRA
 10
0.0653698
 20
0.0881821
 30
0
  0
VERTEX
  8
72_ARTEK_AKFURNITURE_D2_CH_FRA
 10
0.0646135
 20
0.0870489
 30
0
  0
VERTEX
  8
72_ARTEK_AKFURNITURE_D2_CH_FRA
 10
0.0638845
 20
0.085897
 30
0
  0
VERTEX
  8
72_ARTEK_AKFURNITURE_D2_CH_FRA
 10
0.0631804
 20
0.0847271
 30
0
  0
VERTEX
  8
72_ARTEK_AKFURNITURE_D2_CH_FRA
 10
0.0624996
 20
0.0835394
 30
0
  0
VERTEX
  8
72_ARTEK_AKFURNITURE_D2_CH_FRA
 10
0.0618401
 20
0.0823341
 30
0
  0
VERTEX
  8
72_ARTEK_AKFURNITURE_D2_CH_FRA
 10
0.0611998
 20
0.0811115
 30
0
  0
VERTEX
  8
72_ARTEK_AKFURNITURE_D2_CH_FRA
 10
0.0605776
 20
0.0798721
 30
0
  0
VERTEX
  8
72_ARTEK_AKFURNITURE_D2_CH_FRA
 10
0.0599709
 20
0.078616
 30
0
  0
VERTEX
  8
72_ARTEK_AKFURNITURE_D2_CH_FRA
 10
0.0593779
 20
0.0773437
 30
0
  0
VERTEX
  8
72_ARTEK_AKFURNITURE_D2_CH_FRA
 10
0.0587969
 20
0.0760554
 30
0
  0
VERTEX
  8
72_ARTEK_AKFURNITURE_D2_CH_FRA
 10
0.0582262
 20
0.0747514
 30
0
  0
VERTEX
  8
72_ARTEK_AKFURNITURE_D2_CH_FRA
 10
0.0581836
 20
0.0746508
 30
0
  0
SEQEND
  0
POLYLINE
  8
72_ARTEK_AKFURNITURE_D2SNAP
 66
     1
 70
     0
 10
0.0
 20
0.0
 30
0.0
  0
VERTEX
  8
72_ARTEK_AKFURNITURE_D2SNAP
 10
0.3126
 20
-0
 30
0
  0
VERTEX
  8
72_ARTEK_AKFURNITURE_D2SNAP
 10
0.31236
 20
0.00243863
 30
0
  0
VERTEX
  8
72_ARTEK_AKFURNITURE_D2SNAP
 10
0.311648
 20
0.00478354
 30
0
  0
VERTEX
  8
72_ARTEK_AKFURNITURE_D2SNAP
 10
0.310493
 20
0.00694463
 30
0
  0
VERTEX
  8
72_ARTEK_AKFURNITURE_D2SNAP
 10
0.308939
 20
0.00883883
 30
0
  0
VERTEX
  8
72_ARTEK_AKFURNITURE_D2SNAP
 10
0.307045
 20
0.0103934
 30
0
  0
VERTEX
  8
72_ARTEK_AKFURNITURE_D2SNAP
 10
0.304884
 20
0.0115485
 30
0
  0
VERTEX
  8
72_ARTEK_AKFURNITURE_D2SNAP
 10
0.302539
 20
0.0122598
 30
0
  0
VERTEX
  8
72_ARTEK_AKFURNITURE_D2SNAP
 10
0.3001
 20
0.0125
 30
0
  0
VERTEX
  8
72_ARTEK_AKFURNITURE_D2SNAP
 10
0.297661
 20
0.0122598
 30
0
  0
VERTEX
  8
72_ARTEK_AKFURNITURE_D2SNAP
 10
0.295316
 20
0.0115485
 30
0
  0
VERTEX
  8
72_ARTEK_AKFURNITURE_D2SNAP
 10
0.293155
 20
0.0103934
 30
0
  0
VERTEX
  8
72_ARTEK_AKFURNITURE_D2SNAP
 10
0.291261
 20
0.00883883
 30
0
  0
VERTEX
  8
72_ARTEK_AKFURNITURE_D2SNAP
 10
0.289707
 20
0.00694463
 30
0
  0
VERTEX
  8
72_ARTEK_AKFURNITURE_D2SNAP
 10
0.288552
 20
0.00478354
 30
0
  0
VERTEX
  8
72_ARTEK_AKFURNITURE_D2SNAP
 10
0.28784
 20
0.00243863
 30
0
  0
VERTEX
  8
72_ARTEK_AKFURNITURE_D2SNAP
 10
0.2876
 20
3.15316e-018
 30
0
  0
VERTEX
  8
72_ARTEK_AKFURNITURE_D2SNAP
 10
0.28784
 20
-0.00243863
 30
0
  0
VERTEX
  8
72_ARTEK_AKFURNITURE_D2SNAP
 10
0.288552
 20
-0.00478354
 30
0
  0
VERTEX
  8
72_ARTEK_AKFURNITURE_D2SNAP
 10
0.289707
 20
-0.00694463
 30
0
  0
VERTEX
  8
72_ARTEK_AKFURNITURE_D2SNAP
 10
0.291261
 20
-0.00883883
 30
0
  0
VERTEX
  8
72_ARTEK_AKFURNITURE_D2SNAP
 10
0.293155
 20
-0.0103934
 30
0
  0
VERTEX
  8
72_ARTEK_AKFURNITURE_D2SNAP
 10
0.295316
 20
-0.0115485
 30
0
  0
VERTEX
  8
72_ARTEK_AKFURNITURE_D2SNAP
 10
0.297661
 20
-0.0122598
 30
0
  0
VERTEX
  8
72_ARTEK_AKFURNITURE_D2SNAP
 10
0.3001
 20
-0.0125
 30
0
  0
VERTEX
  8
72_ARTEK_AKFURNITURE_D2SNAP
 10
0.302539
 20
-0.0122598
 30
0
  0
VERTEX
  8
72_ARTEK_AKFURNITURE_D2SNAP
 10
0.304884
 20
-0.0115485
 30
0
  0
VERTEX
  8
72_ARTEK_AKFURNITURE_D2SNAP
 10
0.307045
 20
-0.0103934
 30
0
  0
VERTEX
  8
72_ARTEK_AKFURNITURE_D2SNAP
 10
0.308939
 20
-0.00883883
 30
0
  0
VERTEX
  8
72_ARTEK_AKFURNITURE_D2SNAP
 10
0.310493
 20
-0.00694463
 30
0
  0
VERTEX
  8
72_ARTEK_AKFURNITURE_D2SNAP
 10
0.311648
 20
-0.00478354
 30
0
  0
VERTEX
  8
72_ARTEK_AKFURNITURE_D2SNAP
 10
0.31236
 20
-0.00243863
 30
0
  0
VERTEX
  8
72_ARTEK_AKFURNITURE_D2SNAP
 10
0.3126
 20
-0
 30
0
  0
SEQEND
  0
POLYLINE
  8
72_ARTEK_AKFURNITURE_D2SNAP
 66
     1
 70
     0
 10
0.0
 20
0.0
 30
0.0
  0
VERTEX
  8
72_ARTEK_AKFURNITURE_D2SNAP
 10
0.282422
 20
-0.0176777
 30
0
  0
VERTEX
  8
72_ARTEK_AKFURNITURE_D2SNAP
 10
0.317778
 20
0.0176777
 30
0
  0
SEQEND
  0
POLYLINE
  8
72_ARTEK_AKFURNITURE_D2SNAP
 66
     1
 70
     0
 10
0.0
 20
0.0
 30
0.0
  0
VERTEX
  8
72_ARTEK_AKFURNITURE_D2SNAP
 10
0.282422
 20
0.0176777
 30
0
  0
VERTEX
  8
72_ARTEK_AKFURNITURE_D2SNAP
 10
0.317778
 20
-0.0176777
 30
0
  0
SEQEND
  0
POLYLINE
  8
72_ARTEK_AKFURNITURE_D2SNAP
 66
     1
 70
     0
 10
0.0
 20
0.0
 30
0.0
  0
VERTEX
  8
72_ARTEK_AKFURNITURE_D2SNAP
 10
0.3126
 20
-0
 30
0
  0
VERTEX
  8
72_ARTEK_AKFURNITURE_D2SNAP
 10
0.31236
 20
0.00243863
 30
0
  0
VERTEX
  8
72_ARTEK_AKFURNITURE_D2SNAP
 10
0.311648
 20
0.00478354
 30
0
  0
VERTEX
  8
72_ARTEK_AKFURNITURE_D2SNAP
 10
0.310493
 20
0.00694463
 30
0
  0
VERTEX
  8
72_ARTEK_AKFURNITURE_D2SNAP
 10
0.308939
 20
0.00883883
 30
0
  0
VERTEX
  8
72_ARTEK_AKFURNITURE_D2SNAP
 10
0.307045
 20
0.0103934
 30
0
  0
VERTEX
  8
72_ARTEK_AKFURNITURE_D2SNAP
 10
0.304884
 20
0.0115485
 30
0
  0
VERTEX
  8
72_ARTEK_AKFURNITURE_D2SNAP
 10
0.302539
 20
0.0122598
 30
0
  0
VERTEX
  8
72_ARTEK_AKFURNITURE_D2SNAP
 10
0.3001
 20
0.0125
 30
0
  0
VERTEX
  8
72_ARTEK_AKFURNITURE_D2SNAP
 10
0.297661
 20
0.0122598
 30
0
  0
VERTEX
  8
72_ARTEK_AKFURNITURE_D2SNAP
 10
0.295316
 20
0.0115485
 30
0
  0
VERTEX
  8
72_ARTEK_AKFURNITURE_D2SNAP
 10
0.293155
 20
0.0103934
 30
0
  0
VERTEX
  8
72_ARTEK_AKFURNITURE_D2SNAP
 10
0.291261
 20
0.00883883
 30
0
  0
VERTEX
  8
72_ARTEK_AKFURNITURE_D2SNAP
 10
0.289707
 20
0.00694463
 30
0
  0
VERTEX
  8
72_ARTEK_AKFURNITURE_D2SNAP
 10
0.288552
 20
0.00478354
 30
0
  0
VERTEX
  8
72_ARTEK_AKFURNITURE_D2SNAP
 10
0.28784
 20
0.00243863
 30
0
  0
VERTEX
  8
72_ARTEK_AKFURNITURE_D2SNAP
 10
0.2876
 20
3.15316e-018
 30
0
  0
VERTEX
  8
72_ARTEK_AKFURNITURE_D2SNAP
 10
0.28784
 20
-0.00243863
 30
0
  0
VERTEX
  8
72_ARTEK_AKFURNITURE_D2SNAP
 10
0.288552
 20
-0.00478354
 30
0
  0
VERTEX
  8
72_ARTEK_AKFURNITURE_D2SNAP
 10
0.289707
 20
-0.00694463
 30
0
  0
VERTEX
  8
72_ARTEK_AKFURNITURE_D2SNAP
 10
0.291261
 20
-0.00883883
 30
0
  0
VERTEX
  8
72_ARTEK_AKFURNITURE_D2SNAP
 10
0.293155
 20
-0.0103934
 30
0
  0
VERTEX
  8
72_ARTEK_AKFURNITURE_D2SNAP
 10
0.295316
 20
-0.0115485
 30
0
  0
VERTEX
  8
72_ARTEK_AKFURNITURE_D2SNAP
 10
0.297661
 20
-0.0122598
 30
0
  0
VERTEX
  8
72_ARTEK_AKFURNITURE_D2SNAP
 10
0.3001
 20
-0.0125
 30
0
  0
VERTEX
  8
72_ARTEK_AKFURNITURE_D2SNAP
 10
0.302539
 20
-0.0122598
 30
0
  0
VERTEX
  8
72_ARTEK_AKFURNITURE_D2SNAP
 10
0.304884
 20
-0.0115485
 30
0
  0
VERTEX
  8
72_ARTEK_AKFURNITURE_D2SNAP
 10
0.307045
 20
-0.0103934
 30
0
  0
VERTEX
  8
72_ARTEK_AKFURNITURE_D2SNAP
 10
0.308939
 20
-0.00883883
 30
0
  0
VERTEX
  8
72_ARTEK_AKFURNITURE_D2SNAP
 10
0.310493
 20
-0.00694463
 30
0
  0
VERTEX
  8
72_ARTEK_AKFURNITURE_D2SNAP
 10
0.311648
 20
-0.00478354
 30
0
  0
VERTEX
  8
72_ARTEK_AKFURNITURE_D2SNAP
 10
0.31236
 20
-0.00243863
 30
0
  0
VERTEX
  8
72_ARTEK_AKFURNITURE_D2SNAP
 10
0.3126
 20
-0
 30
0
  0
SEQEND
  0
POLYLINE
  8
72_ARTEK_AKFURNITURE_D2SNAP
 66
     1
 70
     0
 10
0.0
 20
0.0
 30
0.0
  0
VERTEX
  8
72_ARTEK_AKFURNITURE_D2SNAP
 10
0.282422
 20
-0.0176777
 30
0
  0
VERTEX
  8
72_ARTEK_AKFURNITURE_D2SNAP
 10
0.317778
 20
0.0176777
 30
0
  0
SEQEND
  0
POLYLINE
  8
72_ARTEK_AKFURNITURE_D2SNAP
 66
     1
 70
     0
 10
0.0
 20
0.0
 30
0.0
  0
VERTEX
  8
72_ARTEK_AKFURNITURE_D2SNAP
 10
0.282422
 20
0.0176777
 30
0
  0
VERTEX
  8
72_ARTEK_AKFURNITURE_D2SNAP
 10
0.317778
 20
-0.0176777
 30
0
  0
SEQEND
  0
POLYLINE
  8
72_ARTEK_AKFURNITURE_D2_CH_SEA
 66
     1
 70
     0
 10
0.0
 20
0.0
 30
0.0
  0
VERTEX
  8
72_ARTEK_AKFURNITURE_D2_CH_SEA
 10
0.543344
 20
0.0641486
 30
0
  0
VERTEX
  8
72_ARTEK_AKFURNITURE_D2_CH_SEA
 10
0.543404
 20
0.0639856
 30
0
  0
VERTEX
  8
72_ARTEK_AKFURNITURE_D2_CH_SEA
 10
0.543383
 20
0.0641506
 30
0
  0
VERTEX
  8
72_ARTEK_AKFURNITURE_D2_CH_SEA
 10
0.543338
 20
0.0644947
 30
0
  0
VERTEX
  8
72_ARTEK_AKFURNITURE_D2_CH_SEA
 10
0.543249
 20
0.0651829
 30
0
  0
VERTEX
  8
72_ARTEK_AKFURNITURE_D2_CH_SEA
 10
0.54307
 20
0.0665593
 30
0
  0
VERTEX
  8
72_ARTEK_AKFURNITURE_D2_CH_SEA
 10
0.542711
 20
0.069312
 30
0
  0
VERTEX
  8
72_ARTEK_AKFURNITURE_D2_CH_SEA
 10
0.54195
 20
0.0748053
 30
0
  0
VERTEX
  8
72_ARTEK_AKFURNITURE_D2_CH_SEA
 10
0.539633
 20
0.0798499
 30
0
  0
VERTEX
  8
72_ARTEK_AKFURNITURE_D2_CH_SEA
 10
0.537011
 20
0.084742
 30
0
  0
VERTEX
  8
72_ARTEK_AKFURNITURE_D2_CH_SEA
 10
0.535551
 20
0.0871027
 30
0
  0
VERTEX
  8
72_ARTEK_AKFURNITURE_D2_CH_SEA
 10
0.533977
 20
0.089389
 30
0
  0
VERTEX
  8
72_ARTEK_AKFURNITURE_D2_CH_SEA
 10
0.532282
 20
0.0915872
 30
0
  0
VERTEX
  8
72_ARTEK_AKFURNITURE_D2_CH_SEA
 10
0.530464
 20
0.093684
 30
0
  0
VERTEX
  8
72_ARTEK_AKFURNITURE_D2_CH_SEA
 10
0.528522
 20
0.0956679
 30
0
  0
VERTEX
  8
72_ARTEK_AKFURNITURE_D2_CH_SEA
 10
0.526465
 20
0.0975306
 30
0
  0
VERTEX
  8
72_ARTEK_AKFURNITURE_D2_CH_SEA
 10
0.522125
 20
0.100992
 30
0
  0
VERTEX
  8
72_ARTEK_AKFURNITURE_D2_CH_SEA
 10
0.517772
 20
0.104438
 30
0
  0
VERTEX
  8
72_ARTEK_AKFURNITURE_D2_CH_SEA
 10
0.515671
 20
0.106252
 30
0
  0
VERTEX
  8
72_ARTEK_AKFURNITURE_D2_CH_SEA
 10
0.513681
 20
0.108187
 30
0
  0
VERTEX
  8
72_ARTEK_AKFURNITURE_D2_CH_SEA
 10
0.511847
 20
0.110269
 30
0
  0
VERTEX
  8
72_ARTEK_AKFURNITURE_D2_CH_SEA
 10
0.510236
 20
0.112526
 30
0
  0
VERTEX
  8
72_ARTEK_AKFURNITURE_D2_CH_SEA
 10
0.508925
 20
0.114969
 30
0
  0
VERTEX
  8
72_ARTEK_AKFURNITURE_D2_CH_SEA
 10
0.507993
 20
0.117581
 30
0
  0
VERTEX
  8
72_ARTEK_AKFURNITURE_D2_CH_SEA
 10
0.507526
 20
0.120314
 30
0
  0
VERTEX
  8
72_ARTEK_AKFURNITURE_D2_CH_SEA
 10
0.507476
 20
0.123087
 30
0
  0
VERTEX
  8
72_ARTEK_AKFURNITURE_D2_CH_SEA
 10
0.507476
 20
0.123261
 30
0
  0
VERTEX
  8
72_ARTEK_AKFURNITURE_D2_CH_SEA
 10
0.507476
 20
0.123348
 30
0
  0
VERTEX
  8
72_ARTEK_AKFURNITURE_D2_CH_SEA
 10
0.507462
 20
0.123331
 30
0
  0
VERTEX
  8
72_ARTEK_AKFURNITURE_D2_CH_SEA
 10
0.507377
 20
0.123018
 30
0
  0
VERTEX
  8
72_ARTEK_AKFURNITURE_D2_CH_SEA
 10
0.507236
 20
0.122498
 30
0
  0
VERTEX
  8
72_ARTEK_AKFURNITURE_D2_CH_SEA
 10
0.507134
 20
0.122116
 30
0
  0
VERTEX
  8
72_ARTEK_AKFURNITURE_D2_CH_SEA
 10
0.50707
 20
0.121873
 30
0
  0
VERTEX
  8
72_ARTEK_AKFURNITURE_D2_CH_SEA
 10
0.506892
 20
0.121122
 30
0
  0
VERTEX
  8
72_ARTEK_AKFURNITURE_D2_CH_SEA
 10
0.506777
 20
0.120578
 30
0
  0
VERTEX
  8
72_ARTEK_AKFURNITURE_D2_CH_SEA
 10
0.506629
 20
0.119843
 30
0
  0
VERTEX
  8
72_ARTEK_AKFURNITURE_D2_CH_SEA
 10
0.50636
 20
0.118294
 30
0
  0
VERTEX
  8
72_ARTEK_AKFURNITURE_D2_CH_SEA
 10
0.506167
 20
0.116689
 30
0
  0
VERTEX
  8
72_ARTEK_AKFURNITURE_D2_CH_SEA
 10
0.506141
 20
0.115852
 30
0
  0
VERTEX
  8
72_ARTEK_AKFURNITURE_D2_CH_SEA
 10
0.506151
 20
0.115138
 30
0
  0
VERTEX
  8
72_ARTEK_AKFURNITURE_D2_CH_SEA
 10
0.506218
 20
0.114092
 30
0
  0
VERTEX
  8
72_ARTEK_AKFURNITURE_D2_CH_SEA
 10
0.506286
 20
0.113192
 30
0
  0
VERTEX
  8
72_ARTEK_AKFURNITURE_D2_CH_SEA
 10
0.506565
 20
0.111294
 30
0
  0
VERTEX
  8
72_ARTEK_AKFURNITURE_D2_CH_SEA
 10
0.506783
 20
0.110474
 30
0
  0
VERTEX
  8
72_ARTEK_AKFURNITURE_D2_CH_SEA
 10
0.506973
 20
0.109917
 30
0
  0
VERTEX
  8
72_ARTEK_AKFURNITURE_D2_CH_SEA
 10
0.507289
 20
0.109116
 30
0
  0
VERTEX
  8
72_ARTEK_AKFURNITURE_D2_CH_SEA
 10
0.507527
 20
0.108576
 30
0
  0
VERTEX
  8
72_ARTEK_AKFURNITURE_D2_CH_SEA
 10
0.507719
 20
0.108181
 30
0
  0
VERTEX
  8
72_ARTEK_AKFURNITURE_D2_CH_SEA
 10
0.507904
 20
0.107815
 30
0
  0
VERTEX
  8
72_ARTEK_AKFURNITURE_D2_CH_SEA
 10
0.508151
 20
0.107333
 30
0
  0
VERTEX
  8
72_ARTEK_AKFURNITURE_D2_CH_SEA
 10
0.50941
 20
0.105207
 30
0
  0
VERTEX
  8
72_ARTEK_AKFURNITURE_D2_CH_SEA
 10
0.510902
 20
0.103238
 30
0
  0
VERTEX
  8
72_ARTEK_AKFURNITURE_D2_CH_SEA
 10
0.512559
 20
0.101405
 30
0
  0
VERTEX
  8
72_ARTEK_AKFURNITURE_D2_CH_SEA
 10
0.514356
 20
0.0997071
 30
0
  0
VERTEX
  8
72_ARTEK_AKFURNITURE_D2_CH_SEA
 10
0.51625
 20
0.0981199
 30
0
  0
VERTEX
  8
72_ARTEK_AKFURNITURE_D2_CH_SEA
 10
0.520206
 20
0.0951554
 30
0
  0
VERTEX
  8
72_ARTEK_AKFURNITURE_D2_CH_SEA
 10
0.524218
 20
0.0922656
 30
0
  0
VERTEX
  8
72_ARTEK_AKFURNITURE_D2_CH_SEA
 10
0.528097
 20
0.0892016
 30
0
  0
VERTEX
  8
72_ARTEK_AKFURNITURE_D2_CH_SEA
 10
0.529916
 20
0.0875288
 30
0
  0
VERTEX
  8
72_ARTEK_AKFURNITURE_D2_CH_SEA
 10
0.531626
 20
0.0857442
 30
0
  0
VERTEX
  8
72_ARTEK_AKFURNITURE_D2_CH_SEA
 10
0.533218
 20
0.0838536
 30
0
  0
VERTEX
  8
72_ARTEK_AKFURNITURE_D2_CH_SEA
 10
0.534695
 20
0.0818716
 30
0
  0
VERTEX
  8
72_ARTEK_AKFURNITURE_D2_CH_SEA
 10
0.536062
 20
0.0798127
 30
0
  0
VERTEX
  8
72_ARTEK_AKFURNITURE_D2_CH_SEA
 10
0.537327
 20
0.0776887
 30
0
  0
VERTEX
  8
72_ARTEK_AKFURNITURE_D2_CH_SEA
 10
0.539583
 20
0.0732906
 30
0
  0
VERTEX
  8
72_ARTEK_AKFURNITURE_D2_CH_SEA
 10
0.541554
 20
0.0687571
 30
0
  0
VERTEX
  8
72_ARTEK_AKFURNITURE_D2_CH_SEA
 10
0.543344
 20
0.0641486
 30
0
  0
SEQEND
  0
POLYLINE
  8
72_ARTEK_AKFURNITURE_D2_CH_SEA
 66
     1
 70
     0
 10
0.0
 20
0.0
 30
0.0
  0
VERTEX
  8
72_ARTEK_AKFURNITURE_D2_CH_SEA
 10
0.0568557
 20
0.0641486
 30
0
  0
VERTEX
  8
72_ARTEK_AKFURNITURE_D2_CH_SEA
 10
0.0567963
 20
0.0639856
 30
0
  0
VERTEX
  8
72_ARTEK_AKFURNITURE_D2_CH_SEA
 10
0.056817
 20
0.0641506
 30
0
  0
VERTEX
  8
72_ARTEK_AKFURNITURE_D2_CH_SEA
 10
0.0568618
 20
0.0644947
 30
0
  0
VERTEX
  8
72_ARTEK_AKFURNITURE_D2_CH_SEA
 10
0.0569513
 20
0.0651829
 30
0
  0
VERTEX
  8
72_ARTEK_AKFURNITURE_D2_CH_SEA
 10
0.0571305
 20
0.0665593
 30
0
  0
VERTEX
  8
72_ARTEK_AKFURNITURE_D2_CH_SEA
 10
0.0574887
 20
0.069312
 30
0
  0
VERTEX
  8
72_ARTEK_AKFURNITURE_D2_CH_SEA
 10
0.0582498
 20
0.0748053
 30
0
  0
VERTEX
  8
72_ARTEK_AKFURNITURE_D2_CH_SEA
 10
0.0605669
 20
0.0798499
 30
0
  0
VERTEX
  8
72_ARTEK_AKFURNITURE_D2_CH_SEA
 10
0.0631894
 20
0.084742
 30
0
  0
VERTEX
  8
72_ARTEK_AKFURNITURE_D2_CH_SEA
 10
0.0646495
 20
0.0871027
 30
0
  0
VERTEX
  8
72_ARTEK_AKFURNITURE_D2_CH_SEA
 10
0.0662234
 20
0.089389
 30
0
  0
VERTEX
  8
72_ARTEK_AKFURNITURE_D2_CH_SEA
 10
0.067918
 20
0.0915872
 30
0
  0
VERTEX
  8
72_ARTEK_AKFURNITURE_D2_CH_SEA
 10
0.0697365
 20
0.093684
 30
0
  0
VERTEX
  8
72_ARTEK_AKFURNITURE_D2_CH_SEA
 10
0.0716775
 20
0.0956679
 30
0
  0
VERTEX
  8
72_ARTEK_AKFURNITURE_D2_CH_SEA
 10
0.0737352
 20
0.0975306
 30
0
  0
VERTEX
  8
72_ARTEK_AKFURNITURE_D2_CH_SEA
 10
0.0780754
 20
0.100992
 30
0
  0
VERTEX
  8
72_ARTEK_AKFURNITURE_D2_CH_SEA
 10
0.0824282
 20
0.104438
 30
0
  0
VERTEX
  8
72_ARTEK_AKFURNITURE_D2_CH_SEA
 10
0.0845287
 20
0.106252
 30
0
  0
VERTEX
  8
72_ARTEK_AKFURNITURE_D2_CH_SEA
 10
0.0865187
 20
0.108187
 30
0
  0
VERTEX
  8
72_ARTEK_AKFURNITURE_D2_CH_SEA
 10
0.0883525
 20
0.110269
 30
0
  0
VERTEX
  8
72_ARTEK_AKFURNITURE_D2_CH_SEA
 10
0.0899642
 20
0.112526
 30
0
  0
VERTEX
  8
72_ARTEK_AKFURNITURE_D2_CH_SEA
 10
0.091275
 20
0.114969
 30
0
  0
VERTEX
  8
72_ARTEK_AKFURNITURE_D2_CH_SEA
 10
0.0922067
 20
0.117581
 30
0
  0
VERTEX
  8
72_ARTEK_AKFURNITURE_D2_CH_SEA
 10
0.0926743
 20
0.120314
 30
0
  0
VERTEX
  8
72_ARTEK_AKFURNITURE_D2_CH_SEA
 10
0.0927242
 20
0.123087
 30
0
  0
VERTEX
  8
72_ARTEK_AKFURNITURE_D2_CH_SEA
 10
0.0927242
 20
0.123261
 30
0
  0
VERTEX
  8
72_ARTEK_AKFURNITURE_D2_CH_SEA
 10
0.0927242
 20
0.123348
 30
0
  0
VERTEX
  8
72_ARTEK_AKFURNITURE_D2_CH_SEA
 10
0.092738
 20
0.123331
 30
0
  0
VERTEX
  8
72_ARTEK_AKFURNITURE_D2_CH_SEA
 10
0.092823
 20
0.123018
 30
0
  0
VERTEX
  8
72_ARTEK_AKFURNITURE_D2_CH_SEA
 10
0.092964
 20
0.122498
 30
0
  0
VERTEX
  8
72_ARTEK_AKFURNITURE_D2_CH_SEA
 10
0.0930664
 20
0.122116
 30
0
  0
VERTEX
  8
72_ARTEK_AKFURNITURE_D2_CH_SEA
 10
0.0931303
 20
0.121873
 30
0
  0
VERTEX
  8
72_ARTEK_AKFURNITURE_D2_CH_SEA
 10
0.0933076
 20
0.121122
 30
0
  0
VERTEX
  8
72_ARTEK_AKFURNITURE_D2_CH_SEA
 10
0.0934228
 20
0.120578
 30
0
  0
VERTEX
  8
72_ARTEK_AKFURNITURE_D2_CH_SEA
 10
0.0935713
 20
0.119843
 30
0
  0
VERTEX
  8
72_ARTEK_AKFURNITURE_D2_CH_SEA
 10
0.0938403
 20
0.118294
 30
0
  0
VERTEX
  8
72_ARTEK_AKFURNITURE_D2_CH_SEA
 10
0.0940332
 20
0.116689
 30
0
  0
VERTEX
  8
72_ARTEK_AKFURNITURE_D2_CH_SEA
 10
0.0940588
 20
0.115852
 30
0
  0
VERTEX
  8
72_ARTEK_AKFURNITURE_D2_CH_SEA
 10
0.0940495
 20
0.115138
 30
0
  0
VERTEX
  8
72_ARTEK_AKFURNITURE_D2_CH_SEA
 10
0.0939819
 20
0.114092
 30
0
  0
VERTEX
  8
72_ARTEK_AKFURNITURE_D2_CH_SEA
 10
0.0939141
 20
0.113192
 30
0
  0
VERTEX
  8
72_ARTEK_AKFURNITURE_D2_CH_SEA
 10
0.0936353
 20
0.111294
 30
0
  0
VERTEX
  8
72_ARTEK_AKFURNITURE_D2_CH_SEA
 10
0.0934168
 20
0.110474
 30
0
  0
VERTEX
  8
72_ARTEK_AKFURNITURE_D2_CH_SEA
 10
0.093227
 20
0.109917
 30
0
  0
VERTEX
  8
72_ARTEK_AKFURNITURE_D2_CH_SEA
 10
0.0929105
 20
0.109116
 30
0
  0
VERTEX
  8
72_ARTEK_AKFURNITURE_D2_CH_SEA
 10
0.0926727
 20
0.108576
 30
0
  0
VERTEX
  8
72_ARTEK_AKFURNITURE_D2_CH_SEA
 10
0.0924814
 20
0.108181
 30
0
  0
VERTEX
  8
72_ARTEK_AKFURNITURE_D2_CH_SEA
 10
0.0922964
 20
0.107815
 30
0
  0
VERTEX
  8
72_ARTEK_AKFURNITURE_D2_CH_SEA
 10
0.0920487
 20
0.107333
 30
0
  0
VERTEX
  8
72_ARTEK_AKFURNITURE_D2_CH_SEA
 10
0.0907902
 20
0.105207
 30
0
  0
VERTEX
  8
72_ARTEK_AKFURNITURE_D2_CH_SEA
 10
0.0892976
 20
0.103238
 30
0
  0
VERTEX
  8
72_ARTEK_AKFURNITURE_D2_CH_SEA
 10
0.0876407
 20
0.101405
 30
0
  0
VERTEX
  8
72_ARTEK_AKFURNITURE_D2_CH_SEA
 10
0.0858445
 20
0.0997071
 30
0
  0
VERTEX
  8
72_ARTEK_AKFURNITURE_D2_CH_SEA
 10
0.0839498
 20
0.0981199
 30
0
  0
VERTEX
  8
72_ARTEK_AKFURNITURE_D2_CH_SEA
 10
0.0799937
 20
0.0951554
 30
0
  0
VERTEX
  8
72_ARTEK_AKFURNITURE_D2_CH_SEA
 10
0.0759821
 20
0.0922656
 30
0
  0
VERTEX
  8
72_ARTEK_AKFURNITURE_D2_CH_SEA
 10
0.0721034
 20
0.0892016
 30
0
  0
VERTEX
  8
72_ARTEK_AKFURNITURE_D2_CH_SEA
 10
0.0702842
 20
0.0875288
 30
0
  0
VERTEX
  8
72_ARTEK_AKFURNITURE_D2_CH_SEA
 10
0.0685743
 20
0.0857442
 30
0
  0
VERTEX
  8
72_ARTEK_AKFURNITURE_D2_CH_SEA
 10
0.0669821
 20
0.0838536
 30
0
  0
VERTEX
  8
72_ARTEK_AKFURNITURE_D2_CH_SEA
 10
0.0655052
 20
0.0818716
 30
0
  0
VERTEX
  8
72_ARTEK_AKFURNITURE_D2_CH_SEA
 10
0.0641376
 20
0.0798127
 30
0
  0
VERTEX
  8
72_ARTEK_AKFURNITURE_D2_CH_SEA
 10
0.0628733
 20
0.0776887
 30
0
  0
VERTEX
  8
72_ARTEK_AKFURNITURE_D2_CH_SEA
 10
0.0606174
 20
0.0732906
 30
0
  0
VERTEX
  8
72_ARTEK_AKFURNITURE_D2_CH_SEA
 10
0.0586462
 20
0.0687571
 30
0
  0
VERTEX
  8
72_ARTEK_AKFURNITURE_D2_CH_SEA
 10
0.0568557
 20
0.0641486
 30
0
  0
SEQEND
  0
POLYLINE
  8
72_ARTEK_AKFURNITURE_D2_CH_SEA
 66
     1
 70
     0
 10
0.0
 20
0.0
 30
0.0
  0
VERTEX
  8
72_ARTEK_AKFURNITURE_D2_CH_SEA
 10
0.3001
 20
0.339446
 30
0
  0
VERTEX
  8
72_ARTEK_AKFURNITURE_D2_CH_SEA
 10
0.24616
 20
0.339123
 30
0
  0
VERTEX
  8
72_ARTEK_AKFURNITURE_D2_CH_SEA
 10
0.192254
 20
0.337323
 30
0
  0
VERTEX
  8
72_ARTEK_AKFURNITURE_D2_CH_SEA
 10
0.165391
 20
0.334937
 30
0
  0
VERTEX
  8
72_ARTEK_AKFURNITURE_D2_CH_SEA
 10
0.138717
 20
0.330983
 30
0
  0
VERTEX
  8
72_ARTEK_AKFURNITURE_D2_CH_SEA
 10
0.112402
 20
0.325099
 30
0
  0
VERTEX
  8
72_ARTEK_AKFURNITURE_D2_CH_SEA
 10
0.086693
 20
0.316987
 30
0
  0
VERTEX
  8
72_ARTEK_AKFURNITURE_D2_CH_SEA
 10
0.0622378
 20
0.305678
 30
0
  0
VERTEX
  8
72_ARTEK_AKFURNITURE_D2_CH_SEA
 10
0.0401417
 20
0.290289
 30
0
  0
VERTEX
  8
72_ARTEK_AKFURNITURE_D2_CH_SEA
 10
0.030421
 20
0.280953
 30
0
  0
VERTEX
  8
72_ARTEK_AKFURNITURE_D2_CH_SEA
 10
0.0219835
 20
0.270448
 30
0
  0
VERTEX
  8
72_ARTEK_AKFURNITURE_D2_CH_SEA
 10
0.0153306
 20
0.258738
 30
0
  0
VERTEX
  8
72_ARTEK_AKFURNITURE_D2_CH_SEA
 10
0.0108469
 20
0.246037
 30
0
  0
VERTEX
  8
72_ARTEK_AKFURNITURE_D2_CH_SEA
 10
0.0082929
 20
0.232806
 30
0
  0
VERTEX
  8
72_ARTEK_AKFURNITURE_D2_CH_SEA
 10
0.00721504
 20
0.219368
 30
0
  0
VERTEX
  8
72_ARTEK_AKFURNITURE_D2_CH_SEA
 10
0.00766225
 20
0.205905
 30
0
  0
VERTEX
  8
72_ARTEK_AKFURNITURE_D2_CH_SEA
 10
0.0113836
 20
0.193009
 30
0
  0
VERTEX
  8
72_ARTEK_AKFURNITURE_D2_CH_SEA
 10
0.0152329
 20
0.187498
 30
0
  0
VERTEX
  8
72_ARTEK_AKFURNITURE_D2_CH_SEA
 10
0.0203726
 20
0.183168
 30
0
  0
VERTEX
  8
72_ARTEK_AKFURNITURE_D2_CH_SEA
 10
0.0328326
 20
0.178161
 30
0
  0
VERTEX
  8
72_ARTEK_AKFURNITURE_D2_CH_SEA
 10
0.0588915
 20
0.171411
 30
0
  0
VERTEX
  8
72_ARTEK_AKFURNITURE_D2_CH_SEA
 10
0.0697712
 20
0.163593
 30
0
  0
VERTEX
  8
72_ARTEK_AKFURNITURE_D2_CH_SEA
 10
0.0777912
 20
0.152787
 30
0
  0
VERTEX
  8
72_ARTEK_AKFURNITURE_D2_CH_SEA
 10
0.0906538
 20
0.129092
 30
0
  0
VERTEX
  8
72_ARTEK_AKFURNITURE_D2_CH_SEA
 10
0.0928812
 20
0.122804
 30
0
  0
VERTEX
  8
72_ARTEK_AKFURNITURE_D2_CH_SEA
 10
0.0934974
 20
0.120215
 30
0
  0
VERTEX
  8
72_ARTEK_AKFURNITURE_D2_CH_SEA
 10
0.0939458
 20
0.113587
 30
0
  0
VERTEX
  8
72_ARTEK_AKFURNITURE_D2_CH_SEA
 10
0.0931216
 20
0.109643
 30
0
  0
VERTEX
  8
72_ARTEK_AKFURNITURE_D2_CH_SEA
 10
0.0923105
 20
0.107843
 30
0
  0
VERTEX
  8
72_ARTEK_AKFURNITURE_D2_CH_SEA
 10
0.0890949
 20
0.102991
 30
0
  0
VERTEX
  8
72_ARTEK_AKFURNITURE_D2_CH_SEA
 10
0.0707943
 20
0.0880261
 30
0
  0
VERTEX
  8
72_ARTEK_AKFURNITURE_D2_CH_SEA
 10
0.0634892
 20
0.0787515
 30
0
  0
VERTEX
  8
72_ARTEK_AKFURNITURE_D2_CH_SEA
 10
0.0583738
 20
0.0680823
 30
0
  0
VERTEX
  8
72_ARTEK_AKFURNITURE_D2_CH_SEA
 10
0.0558334
 20
0.0565937
 30
0
  0
VERTEX
  8
72_ARTEK_AKFURNITURE_D2_CH_SEA
 10
0.0543047
 20
0.0448483
 30
0
  0
VERTEX
  8
72_ARTEK_AKFURNITURE_D2_CH_SEA
 10
0.0512474
 20
0.0213573
 30
0
  0
VERTEX
  8
72_ARTEK_AKFURNITURE_D2_CH_SEA
 10
0.0391643
 20
-0.0726019
 30
0
  0
VERTEX
  8
72_ARTEK_AKFURNITURE_D2_CH_SEA
 10
0.0353497
 20
-0.119749
 30
0
  0
VERTEX
  8
72_ARTEK_AKFURNITURE_D2_CH_SEA
 10
0.0330152
 20
-0.167059
 30
0
  0
VERTEX
  8
72_ARTEK_AKFURNITURE_D2_CH_SEA
 10
0.0314715
 20
-0.214398
 30
0
  0
VERTEX
  8
72_ARTEK_AKFURNITURE_D2_CH_SEA
 10
0.0309915
 20
-0.238076
 30
0
  0
VERTEX
  8
72_ARTEK_AKFURNITURE_D2_CH_SEA
 10
0.0308531
 20
-0.248745
 30
0
  0
VERTEX
  8
72_ARTEK_AKFURNITURE_D2_CH_SEA
 10
0.0308502
 20
-0.252014
 30
0
  0
VERTEX
  8
72_ARTEK_AKFURNITURE_D2_CH_SEA
 10
0.0308858
 20
-0.25375
 30
0
  0
VERTEX
  8
72_ARTEK_AKFURNITURE_D2_CH_SEA
 10
0.0309929
 20
-0.256379
 30
0
  0
VERTEX
  8
72_ARTEK_AKFURNITURE_D2_CH_SEA
 10
0.0312172
 20
-0.261018
 30
0
  0
VERTEX
  8
72_ARTEK_AKFURNITURE_D2_CH_SEA
 10
0.0313747
 20
-0.263907
 30
0
  0
VERTEX
  8
72_ARTEK_AKFURNITURE_D2_CH_SEA
 10
0.0317969
 20
-0.267741
 30
0
  0
VERTEX
  8
72_ARTEK_AKFURNITURE_D2_CH_SEA
 10
0.0329003
 20
-0.27619
 30
0
  0
VERTEX
  8
72_ARTEK_AKFURNITURE_D2_CH_SEA
 10
0.0368929
 20
-0.292701
 30
0
  0
VERTEX
  8
72_ARTEK_AKFURNITURE_D2_CH_SEA
 10
0.0383382
 20
-0.296386
 30
0
  0
VERTEX
  8
72_ARTEK_AKFURNITURE_D2_CH_SEA
 10
0.0404525
 20
-0.300913
 30
0
  0
VERTEX
  8
72_ARTEK_AKFURNITURE_D2_CH_SEA
 10
0.0441398
 20
-0.307261
 30
0
  0
VERTEX
  8
72_ARTEK_AKFURNITURE_D2_CH_SEA
 10
0.048704
 20
-0.313292
 30
0
  0
VERTEX
  8
72_ARTEK_AKFURNITURE_D2_CH_SEA
 10
0.0562034
 20
-0.320299
 30
0
  0
VERTEX
  8
72_ARTEK_AKFURNITURE_D2_CH_SEA
 10
0.0662959
 20
-0.326526
 30
0
  0
VERTEX
  8
72_ARTEK_AKFURNITURE_D2_CH_SEA
 10
0.0773488
 20
-0.33108
 30
0
  0
VERTEX
  8
72_ARTEK_AKFURNITURE_D2_CH_SEA
 10
0.0851916
 20
-0.333444
 30
0
  0
VERTEX
  8
72_ARTEK_AKFURNITURE_D2_CH_SEA
 10
0.0880609
 20
-0.334183
 30
0
  0
VERTEX
  8
72_ARTEK_AKFURNITURE_D2_CH_SEA
 10
0.0929978
 20
-0.33532
 30
0
  0
VERTEX
  8
72_ARTEK_AKFURNITURE_D2_CH_SEA
 10
0.0991907
 20
-0.336596
 30
0
  0
VERTEX
  8
72_ARTEK_AKFURNITURE_D2_CH_SEA
 10
0.102813
 20
-0.337264
 30
0
  0
VERTEX
  8
72_ARTEK_AKFURNITURE_D2_CH_SEA
 10
0.109869
 20
-0.338416
 30
0
  0
VERTEX
  8
72_ARTEK_AKFURNITURE_D2_CH_SEA
 10
0.112092
 20
-0.338737
 30
0
  0
VERTEX
  8
72_ARTEK_AKFURNITURE_D2_CH_SEA
 10
0.116491
 20
-0.339328
 30
0
  0
VERTEX
  8
72_ARTEK_AKFURNITURE_D2_CH_SEA
 10
0.120315
 20
-0.339825
 30
0
  0
VERTEX
  8
72_ARTEK_AKFURNITURE_D2_CH_SEA
 10
0.122246
 20
-0.340056
 30
0
  0
VERTEX
  8
72_ARTEK_AKFURNITURE_D2_CH_SEA
 10
0.124054
 20
-0.340262
 30
0
  0
VERTEX
  8
72_ARTEK_AKFURNITURE_D2_CH_SEA
 10
0.127403
 20
-0.340615
 30
0
  0
VERTEX
  8
72_ARTEK_AKFURNITURE_D2_CH_SEA
 10
0.136372
 20
-0.341494
 30
0
  0
VERTEX
  8
72_ARTEK_AKFURNITURE_D2_CH_SEA
 10
0.142717
 20
-0.342028
 30
0
  0
VERTEX
  8
72_ARTEK_AKFURNITURE_D2_CH_SEA
 10
0.147751
 20
-0.34243
 30
0
  0
VERTEX
  8
72_ARTEK_AKFURNITURE_D2_CH_SEA
 10
0.157353
 20
-0.343136
 30
0
  0
VERTEX
  8
72_ARTEK_AKFURNITURE_D2_CH_SEA
 10
0.172337
 20
-0.344196
 30
0
  0
VERTEX
  8
72_ARTEK_AKFURNITURE_D2_CH_SEA
 10
0.191648
 20
-0.345436
 30
0
  0
VERTEX
  8
72_ARTEK_AKFURNITURE_D2_CH_SEA
 10
0.199746
 20
-0.345879
 30
0
  0
VERTEX
  8
72_ARTEK_AKFURNITURE_D2_CH_SEA
 10
0.206094
 20
-0.346208
 30
0
  0
VERTEX
  8
72_ARTEK_AKFURNITURE_D2_CH_SEA
 10
0.216545
 20
-0.346694
 30
0
  0
VERTEX
  8
72_ARTEK_AKFURNITURE_D2_CH_SEA
 10
0.3001
 20
-0.348554
 30
0
  0
VERTEX
  8
72_ARTEK_AKFURNITURE_D2_CH_SEA
 10
0.383655
 20
-0.346694
 30
0
  0
VERTEX
  8
72_ARTEK_AKFURNITURE_D2_CH_SEA
 10
0.394106
 20
-0.346208
 30
0
  0
VERTEX
  8
72_ARTEK_AKFURNITURE_D2_CH_SEA
 10
0.400454
 20
-0.345879
 30
0
  0
VERTEX
  8
72_ARTEK_AKFURNITURE_D2_CH_SEA
 10
0.408552
 20
-0.345436
 30
0
  0
VERTEX
  8
72_ARTEK_AKFURNITURE_D2_CH_SEA
 10
0.427863
 20
-0.344196
 30
0
  0
VERTEX
  8
72_ARTEK_AKFURNITURE_D2_CH_SEA
 10
0.442847
 20
-0.343136
 30
0
  0
VERTEX
  8
72_ARTEK_AKFURNITURE_D2_CH_SEA
 10
0.452449
 20
-0.34243
 30
0
  0
VERTEX
  8
72_ARTEK_AKFURNITURE_D2_CH_SEA
 10
0.457483
 20
-0.342028
 30
0
  0
VERTEX
  8
72_ARTEK_AKFURNITURE_D2_CH_SEA
 10
0.463828
 20
-0.341494
 30
0
  0
VERTEX
  8
72_ARTEK_AKFURNITURE_D2_CH_SEA
 10
0.472797
 20
-0.340615
 30
0
  0
VERTEX
  8
72_ARTEK_AKFURNITURE_D2_CH_SEA
 10
0.476146
 20
-0.340262
 30
0
  0
VERTEX
  8
72_ARTEK_AKFURNITURE_D2_CH_SEA
 10
0.477954
 20
-0.340056
 30
0
  0
VERTEX
  8
72_ARTEK_AKFURNITURE_D2_CH_SEA
 10
0.479885
 20
-0.339825
 30
0
  0
VERTEX
  8
72_ARTEK_AKFURNITURE_D2_CH_SEA
 10
0.483709
 20
-0.339328
 30
0
  0
VERTEX
  8
72_ARTEK_AKFURNITURE_D2_CH_SEA
 10
0.488108
 20
-0.338737
 30
0
  0
VERTEX
  8
72_ARTEK_AKFURNITURE_D2_CH_SEA
 10
0.490331
 20
-0.338416
 30
0
  0
VERTEX
  8
72_ARTEK_AKFURNITURE_D2_CH_SEA
 10
0.497387
 20
-0.337264
 30
0
  0
VERTEX
  8
72_ARTEK_AKFURNITURE_D2_CH_SEA
 10
0.501009
 20
-0.336596
 30
0
  0
VERTEX
  8
72_ARTEK_AKFURNITURE_D2_CH_SEA
 10
0.507202
 20
-0.33532
 30
0
  0
VERTEX
  8
72_ARTEK_AKFURNITURE_D2_CH_SEA
 10
0.512139
 20
-0.334183
 30
0
  0
VERTEX
  8
72_ARTEK_AKFURNITURE_D2_CH_SEA
 10
0.515008
 20
-0.333444
 30
0
  0
VERTEX
  8
72_ARTEK_AKFURNITURE_D2_CH_SEA
 10
0.522851
 20
-0.33108
 30
0
  0
VERTEX
  8
72_ARTEK_AKFURNITURE_D2_CH_SEA
 10
0.533904
 20
-0.326526
 30
0
  0
VERTEX
  8
72_ARTEK_AKFURNITURE_D2_CH_SEA
 10
0.543997
 20
-0.320299
 30
0
  0
VERTEX
  8
72_ARTEK_AKFURNITURE_D2_CH_SEA
 10
0.551496
 20
-0.313292
 30
0
  0
VERTEX
  8
72_ARTEK_AKFURNITURE_D2_CH_SEA
 10
0.55606
 20
-0.307261
 30
0
  0
VERTEX
  8
72_ARTEK_AKFURNITURE_D2_CH_SEA
 10
0.559748
 20
-0.300913
 30
0
  0
VERTEX
  8
72_ARTEK_AKFURNITURE_D2_CH_SEA
 10
0.561862
 20
-0.296386
 30
0
  0
VERTEX
  8
72_ARTEK_AKFURNITURE_D2_CH_SEA
 10
0.563307
 20
-0.292701
 30
0
  0
VERTEX
  8
72_ARTEK_AKFURNITURE_D2_CH_SEA
 10
0.5673
 20
-0.27619
 30
0
  0
VERTEX
  8
72_ARTEK_AKFURNITURE_D2_CH_SEA
 10
0.568403
 20
-0.267741
 30
0
  0
VERTEX
  8
72_ARTEK_AKFURNITURE_D2_CH_SEA
 10
0.568825
 20
-0.263907
 30
0
  0
VERTEX
  8
72_ARTEK_AKFURNITURE_D2_CH_SEA
 10
0.568983
 20
-0.261018
 30
0
  0
VERTEX
  8
72_ARTEK_AKFURNITURE_D2_CH_SEA
 10
0.569207
 20
-0.256379
 30
0
  0
VERTEX
  8
72_ARTEK_AKFURNITURE_D2_CH_SEA
 10
0.569314
 20
-0.25375
 30
0
  0
VERTEX
  8
72_ARTEK_AKFURNITURE_D2_CH_SEA
 10
0.56935
 20
-0.252014
 30
0
  0
VERTEX
  8
72_ARTEK_AKFURNITURE_D2_CH_SEA
 10
0.569347
 20
-0.248745
 30
0
  0
VERTEX
  8
72_ARTEK_AKFURNITURE_D2_CH_SEA
 10
0.569208
 20
-0.238076
 30
0
  0
VERTEX
  8
72_ARTEK_AKFURNITURE_D2_CH_SEA
 10
0.568729
 20
-0.214398
 30
0
  0
VERTEX
  8
72_ARTEK_AKFURNITURE_D2_CH_SEA
 10
0.567185
 20
-0.167059
 30
0
  0
VERTEX
  8
72_ARTEK_AKFURNITURE_D2_CH_SEA
 10
0.56485
 20
-0.119749
 30
0
  0
VERTEX
  8
72_ARTEK_AKFURNITURE_D2_CH_SEA
 10
0.561036
 20
-0.0726019
 30
0
  0
VERTEX
  8
72_ARTEK_AKFURNITURE_D2_CH_SEA
 10
0.548953
 20
0.0213573
 30
0
  0
VERTEX
  8
72_ARTEK_AKFURNITURE_D2_CH_SEA
 10
0.545895
 20
0.0448483
 30
0
  0
VERTEX
  8
72_ARTEK_AKFURNITURE_D2_CH_SEA
 10
0.544367
 20
0.0565937
 30
0
  0
VERTEX
  8
72_ARTEK_AKFURNITURE_D2_CH_SEA
 10
0.541826
 20
0.0680823
 30
0
  0
VERTEX
  8
72_ARTEK_AKFURNITURE_D2_CH_SEA
 10
0.536711
 20
0.0787515
 30
0
  0
VERTEX
  8
72_ARTEK_AKFURNITURE_D2_CH_SEA
 10
0.529406
 20
0.0880261
 30
0
  0
VERTEX
  8
72_ARTEK_AKFURNITURE_D2_CH_SEA
 10
0.511105
 20
0.102991
 30
0
  0
VERTEX
  8
72_ARTEK_AKFURNITURE_D2_CH_SEA
 10
0.50789
 20
0.107843
 30
0
  0
VERTEX
  8
72_ARTEK_AKFURNITURE_D2_CH_SEA
 10
0.507078
 20
0.109643
 30
0
  0
VERTEX
  8
72_ARTEK_AKFURNITURE_D2_CH_SEA
 10
0.506254
 20
0.113587
 30
0
  0
VERTEX
  8
72_ARTEK_AKFURNITURE_D2_CH_SEA
 10
0.506703
 20
0.120215
 30
0
  0
VERTEX
  8
72_ARTEK_AKFURNITURE_D2_CH_SEA
 10
0.507319
 20
0.122804
 30
0
  0
VERTEX
  8
72_ARTEK_AKFURNITURE_D2_CH_SEA
 10
0.509546
 20
0.129092
 30
0
  0
VERTEX
  8
72_ARTEK_AKFURNITURE_D2_CH_SEA
 10
0.522409
 20
0.152787
 30
0
  0
VERTEX
  8
72_ARTEK_AKFURNITURE_D2_CH_SEA
 10
0.530429
 20
0.163593
 30
0
  0
VERTEX
  8
72_ARTEK_AKFURNITURE_D2_CH_SEA
 10
0.541309
 20
0.171411
 30
0
  0
VERTEX
  8
72_ARTEK_AKFURNITURE_D2_CH_SEA
 10
0.567367
 20
0.178161
 30
0
  0
VERTEX
  8
72_ARTEK_AKFURNITURE_D2_CH_SEA
 10
0.579827
 20
0.183168
 30
0
  0
VERTEX
  8
72_ARTEK_AKFURNITURE_D2_CH_SEA
 10
0.584967
 20
0.187498
 30
0
  0
VERTEX
  8
72_ARTEK_AKFURNITURE_D2_CH_SEA
 10
0.588816
 20
0.193009
 30
0
  0
VERTEX
  8
72_ARTEK_AKFURNITURE_D2_CH_SEA
 10
0.592538
 20
0.205905
 30
0
  0
VERTEX
  8
72_ARTEK_AKFURNITURE_D2_CH_SEA
 10
0.592985
 20
0.219368
 30
0
  0
VERTEX
  8
72_ARTEK_AKFURNITURE_D2_CH_SEA
 10
0.591907
 20
0.232806
 30
0
  0
VERTEX
  8
72_ARTEK_AKFURNITURE_D2_CH_SEA
 10
0.589353
 20
0.246037
 30
0
  0
VERTEX
  8
72_ARTEK_AKFURNITURE_D2_CH_SEA
 10
0.584869
 20
0.258738
 30
0
  0
VERTEX
  8
72_ARTEK_AKFURNITURE_D2_CH_SEA
 10
0.578217
 20
0.270448
 30
0
  0
VERTEX
  8
72_ARTEK_AKFURNITURE_D2_CH_SEA
 10
0.569779
 20
0.280953
 30
0
  0
VERTEX
  8
72_ARTEK_AKFURNITURE_D2_CH_SEA
 10
0.560058
 20
0.290289
 30
0
  0
VERTEX
  8
72_ARTEK_AKFURNITURE_D2_CH_SEA
 10
0.537962
 20
0.305678
 30
0
  0
VERTEX
  8
72_ARTEK_AKFURNITURE_D2_CH_SEA
 10
0.513507
 20
0.316987
 30
0
  0
VERTEX
  8
72_ARTEK_AKFURNITURE_D2_CH_SEA
 10
0.487798
 20
0.325099
 30
0
  0
VERTEX
  8
72_ARTEK_AKFURNITURE_D2_CH_SEA
 10
0.461483
 20
0.330983
 30
0
  0
VERTEX
  8
72_ARTEK_AKFURNITURE_D2_CH_SEA
 10
0.434809
 20
0.334937
 30
0
  0
VERTEX
  8
72_ARTEK_AKFURNITURE_D2_CH_SEA
 10
0.407946
 20
0.337323
 30
0
  0
VERTEX
  8
72_ARTEK_AKFURNITURE_D2_CH_SEA
 10
0.35404
 20
0.339123
 30
0
  0
VERTEX
  8
72_ARTEK_AKFURNITURE_D2_CH_SEA
 10
0.3001
 20
0.339446
 30
0
  0
SEQEND
  0
POLYLINE
  8
72_ARTEK_AKFURNITURE_D2_CH_SEA
 66
     1
 70
     0
 10
0.0
 20
0.0
 30
0.0
  0
VERTEX
  8
72_ARTEK_AKFURNITURE_D2_CH_SEA
 10
0.310926
 20
0.348554
 30
0
  0
VERTEX
  8
72_ARTEK_AKFURNITURE_D2_CH_SEA
 10
0.289274
 20
0.348554
 30
0
  0
VERTEX
  8
72_ARTEK_AKFURNITURE_D2_CH_SEA
 10
0.287327
 20
0.348552
 30
0
  0
VERTEX
  8
72_ARTEK_AKFURNITURE_D2_CH_SEA
 10
0.283428
 20
0.348542
 30
0
  0
VERTEX
  8
72_ARTEK_AKFURNITURE_D2_CH_SEA
 10
0.279528
 20
0.348528
 30
0
  0
VERTEX
  8
72_ARTEK_AKFURNITURE_D2_CH_SEA
 10
0.275629
 20
0.34851
 30
0
  0
VERTEX
  8
72_ARTEK_AKFURNITURE_D2_CH_SEA
 10
0.267873
 20
0.34847
 30
0
  0
VERTEX
  8
72_ARTEK_AKFURNITURE_D2_CH_SEA
 10
0.260108
 20
0.348427
 30
0
  0
VERTEX
  8
72_ARTEK_AKFURNITURE_D2_CH_SEA
 10
0.252336
 20
0.348371
 30
0
  0
VERTEX
  8
72_ARTEK_AKFURNITURE_D2_CH_SEA
 10
0.244559
 20
0.348294
 30
0
  0
VERTEX
  8
72_ARTEK_AKFURNITURE_D2_CH_SEA
 10
0.236778
 20
0.348187
 30
0
  0
VERTEX
  8
72_ARTEK_AKFURNITURE_D2_CH_SEA
 10
0.228995
 20
0.348039
 30
0
  0
VERTEX
  8
72_ARTEK_AKFURNITURE_D2_CH_SEA
 10
0.221212
 20
0.347842
 30
0
  0
VERTEX
  8
72_ARTEK_AKFURNITURE_D2_CH_SEA
 10
0.213432
 20
0.347588
 30
0
  0
VERTEX
  8
72_ARTEK_AKFURNITURE_D2_CH_SEA
 10
0.205656
 20
0.347265
 30
0
  0
VERTEX
  8
72_ARTEK_AKFURNITURE_D2_CH_SEA
 10
0.197886
 20
0.346867
 30
0
  0
VERTEX
  8
72_ARTEK_AKFURNITURE_D2_CH_SEA
 10
0.190124
 20
0.346383
 30
0
  0
VERTEX
  8
72_ARTEK_AKFURNITURE_D2_CH_SEA
 10
0.182371
 20
0.345804
 30
0
  0
VERTEX
  8
72_ARTEK_AKFURNITURE_D2_CH_SEA
 10
0.174631
 20
0.345121
 30
0
  0
VERTEX
  8
72_ARTEK_AKFURNITURE_D2_CH_SEA
 10
0.166904
 20
0.344326
 30
0
  0
VERTEX
  8
72_ARTEK_AKFURNITURE_D2_CH_SEA
 10
0.159192
 20
0.343408
 30
0
  0
VERTEX
  8
72_ARTEK_AKFURNITURE_D2_CH_SEA
 10
0.151498
 20
0.342359
 30
0
  0
VERTEX
  8
72_ARTEK_AKFURNITURE_D2_CH_SEA
 10
0.143824
 20
0.34117
 30
0
  0
VERTEX
  8
72_ARTEK_AKFURNITURE_D2_CH_SEA
 10
0.13617
 20
0.339831
 30
0
  0
VERTEX
  8
72_ARTEK_AKFURNITURE_D2_CH_SEA
 10
0.12854
 20
0.338333
 30
0
  0
VERTEX
  8
72_ARTEK_AKFURNITURE_D2_CH_SEA
 10
0.120935
 20
0.336667
 30
0
  0
VERTEX
  8
72_ARTEK_AKFURNITURE_D2_CH_SEA
 10
0.117746
 20
0.335919
 30
0
  0
VERTEX
  8
72_ARTEK_AKFURNITURE_D2_CH_SEA
 10
0.11456
 20
0.335146
 30
0
  0
VERTEX
  8
72_ARTEK_AKFURNITURE_D2_CH_SEA
 10
0.111378
 20
0.334346
 30
0
  0
VERTEX
  8
72_ARTEK_AKFURNITURE_D2_CH_SEA
 10
0.108202
 20
0.333517
 30
0
  0
VERTEX
  8
72_ARTEK_AKFURNITURE_D2_CH_SEA
 10
0.105032
 20
0.332657
 30
0
  0
VERTEX
  8
72_ARTEK_AKFURNITURE_D2_CH_SEA
 10
0.10187
 20
0.331764
 30
0
  0
VERTEX
  8
72_ARTEK_AKFURNITURE_D2_CH_SEA
 10
0.0987179
 20
0.330837
 30
0
  0
VERTEX
  8
72_ARTEK_AKFURNITURE_D2_CH_SEA
 10
0.0955764
 20
0.329874
 30
0
  0
VERTEX
  8
72_ARTEK_AKFURNITURE_D2_CH_SEA
 10
0.0924477
 20
0.328872
 30
0
  0
VERTEX
  8
72_ARTEK_AKFURNITURE_D2_CH_SEA
 10
0.0893325
 20
0.327831
 30
0
  0
VERTEX
  8
72_ARTEK_AKFURNITURE_D2_CH_SEA
 10
0.0862325
 20
0.326747
 30
0
  0
VERTEX
  8
72_ARTEK_AKFURNITURE_D2_CH_SEA
 10
0.0831493
 20
0.325619
 30
0
  0
VERTEX
  8
72_ARTEK_AKFURNITURE_D2_CH_SEA
 10
0.0800841
 20
0.324446
 30
0
  0
VERTEX
  8
72_ARTEK_AKFURNITURE_D2_CH_SEA
 10
0.0770382
 20
0.323225
 30
0
  0
VERTEX
  8
72_ARTEK_AKFURNITURE_D2_CH_SEA
 10
0.074013
 20
0.321954
 30
0
  0
VERTEX
  8
72_ARTEK_AKFURNITURE_D2_CH_SEA
 10
0.0710103
 20
0.320631
 30
0
  0
VERTEX
  8
72_ARTEK_AKFURNITURE_D2_CH_SEA
 10
0.0680309
 20
0.319256
 30
0
  0
VERTEX
  8
72_ARTEK_AKFURNITURE_D2_CH_SEA
 10
0.0650768
 20
0.317825
 30
0
  0
VERTEX
  8
72_ARTEK_AKFURNITURE_D2_CH_SEA
 10
0.0621489
 20
0.316337
 30
0
  0
VERTEX
  8
72_ARTEK_AKFURNITURE_D2_CH_SEA
 10
0.0592492
 20
0.31479
 30
0
  0
VERTEX
  8
72_ARTEK_AKFURNITURE_D2_CH_SEA
 10
0.0565764
 20
0.313294
 30
0
  0
VERTEX
  8
72_ARTEK_AKFURNITURE_D2_CH_SEA
 10
0.0539217
 20
0.311737
 30
0
  0
VERTEX
  8
72_ARTEK_AKFURNITURE_D2_CH_SEA
 10
0.051289
 20
0.310118
 30
0
  0
VERTEX
  8
72_ARTEK_AKFURNITURE_D2_CH_SEA
 10
0.0486818
 20
0.308437
 30
0
  0
VERTEX
  8
72_ARTEK_AKFURNITURE_D2_CH_SEA
 10
0.0461049
 20
0.306696
 30
0
  0
VERTEX
  8
72_ARTEK_AKFURNITURE_D2_CH_SEA
 10
0.0435616
 20
0.304895
 30
0
  0
VERTEX
  8
72_ARTEK_AKFURNITURE_D2_CH_SEA
 10
0.0410564
 20
0.303033
 30
0
  0
VERTEX
  8
72_ARTEK_AKFURNITURE_D2_CH_SEA
 10
0.038593
 20
0.301112
 30
0
  0
VERTEX
  8
72_ARTEK_AKFURNITURE_D2_CH_SEA
 10
0.0361754
 20
0.299132
 30
0
  0
VERTEX
  8
72_ARTEK_AKFURNITURE_D2_CH_SEA
 10
0.0338076
 20
0.297093
 30
0
  0
VERTEX
  8
72_ARTEK_AKFURNITURE_D2_CH_SEA
 10
0.0314937
 20
0.294996
 30
0
  0
VERTEX
  8
72_ARTEK_AKFURNITURE_D2_CH_SEA
 10
0.0292376
 20
0.292841
 30
0
  0
VERTEX
  8
72_ARTEK_AKFURNITURE_D2_CH_SEA
 10
0.0270437
 20
0.290628
 30
0
  0
VERTEX
  8
72_ARTEK_AKFURNITURE_D2_CH_SEA
 10
0.0249151
 20
0.288357
 30
0
  0
VERTEX
  8
72_ARTEK_AKFURNITURE_D2_CH_SEA
 10
0.0228566
 20
0.28603
 30
0
  0
VERTEX
  8
72_ARTEK_AKFURNITURE_D2_CH_SEA
 10
0.0208721
 20
0.283646
 30
0
  0
VERTEX
  8
72_ARTEK_AKFURNITURE_D2_CH_SEA
 10
0.018965
 20
0.281206
 30
0
  0
VERTEX
  8
72_ARTEK_AKFURNITURE_D2_CH_SEA
 10
0.0171401
 20
0.27871
 30
0
  0
VERTEX
  8
72_ARTEK_AKFURNITURE_D2_CH_SEA
 10
0.0154009
 20
0.276159
 30
0
  0
VERTEX
  8
72_ARTEK_AKFURNITURE_D2_CH_SEA
 10
0.0137514
 20
0.273553
 30
0
  0
VERTEX
  8
72_ARTEK_AKFURNITURE_D2_CH_SEA
 10
0.0125994
 20
0.271583
 30
0
  0
VERTEX
  8
72_ARTEK_AKFURNITURE_D2_CH_SEA
 10
0.0115108
 20
0.269569
 30
0
  0
VERTEX
  8
72_ARTEK_AKFURNITURE_D2_CH_SEA
 10
0.0104845
 20
0.267513
 30
0
  0
VERTEX
  8
72_ARTEK_AKFURNITURE_D2_CH_SEA
 10
0.00951986
 20
0.265418
 30
0
  0
VERTEX
  8
72_ARTEK_AKFURNITURE_D2_CH_SEA
 10
0.00861562
 20
0.263288
 30
0
  0
VERTEX
  8
72_ARTEK_AKFURNITURE_D2_CH_SEA
 10
0.00777029
 20
0.261126
 30
0
  0
VERTEX
  8
72_ARTEK_AKFURNITURE_D2_CH_SEA
 10
0.00698293
 20
0.258935
 30
0
  0
VERTEX
  8
72_ARTEK_AKFURNITURE_D2_CH_SEA
 10
0.00625265
 20
0.256718
 30
0
  0
VERTEX
  8
72_ARTEK_AKFURNITURE_D2_CH_SEA
 10
0.00557821
 20
0.25448
 30
0
  0
VERTEX
  8
72_ARTEK_AKFURNITURE_D2_CH_SEA
 10
0.0049584
 20
0.252223
 30
0
  0
VERTEX
  8
72_ARTEK_AKFURNITURE_D2_CH_SEA
 10
0.0043923
 20
0.249949
 30
0
  0
VERTEX
  8
72_ARTEK_AKFURNITURE_D2_CH_SEA
 10
0.00387838
 20
0.247664
 30
0
  0
VERTEX
  8
72_ARTEK_AKFURNITURE_D2_CH_SEA
 10
0.00341634
 20
0.24537
 30
0
  0
VERTEX
  8
72_ARTEK_AKFURNITURE_D2_CH_SEA
 10
0.00300405
 20
0.24307
 30
0
  0
VERTEX
  8
72_ARTEK_AKFURNITURE_D2_CH_SEA
 10
0.0026412
 20
0.240767
 30
0
  0
VERTEX
  8
72_ARTEK_AKFURNITURE_D2_CH_SEA
 10
0.00232656
 20
0.238466
 30
0
  0
VERTEX
  8
72_ARTEK_AKFURNITURE_D2_CH_SEA
 10
0.00205862
 20
0.236168
 30
0
  0
VERTEX
  8
72_ARTEK_AKFURNITURE_D2_CH_SEA
 10
0.00183645
 20
0.233878
 30
0
  0
VERTEX
  8
72_ARTEK_AKFURNITURE_D2_CH_SEA
 10
0.00165914
 20
0.231598
 30
0
  0
VERTEX
  8
72_ARTEK_AKFURNITURE_D2_CH_SEA
 10
0.00152547
 20
0.229333
 30
0
  0
VERTEX
  8
72_ARTEK_AKFURNITURE_D2_CH_SEA
 10
0.00147176
 20
0.228169
 30
0
  0
VERTEX
  8
72_ARTEK_AKFURNITURE_D2_CH_SEA
 10
0.0014269
 20
0.226996
 30
0
  0
VERTEX
  8
72_ARTEK_AKFURNITURE_D2_CH_SEA
 10
0.00139242
 20
0.225817
 30
0
  0
VERTEX
  8
72_ARTEK_AKFURNITURE_D2_CH_SEA
 10
0.00136892
 20
0.224632
 30
0
  0
VERTEX
  8
72_ARTEK_AKFURNITURE_D2_CH_SEA
 10
0.00135793
 20
0.223443
 30
0
  0
VERTEX
  8
72_ARTEK_AKFURNITURE_D2_CH_SEA
 10
0.00136037
 20
0.22225
 30
0
  0
VERTEX
  8
72_ARTEK_AKFURNITURE_D2_CH_SEA
 10
0.00137777
 20
0.221055
 30
0
  0
VERTEX
  8
72_ARTEK_AKFURNITURE_D2_CH_SEA
 10
0.00141134
 20
0.219858
 30
0
  0
VERTEX
  8
72_ARTEK_AKFURNITURE_D2_CH_SEA
 10
0.001462
 20
0.21866
 30
0
  0
VERTEX
  8
72_ARTEK_AKFURNITURE_D2_CH_SEA
 10
0.00153127
 20
0.217464
 30
0
  0
VERTEX
  8
72_ARTEK_AKFURNITURE_D2_CH_SEA
 10
0.00161977
 20
0.216269
 30
0
  0
VERTEX
  8
72_ARTEK_AKFURNITURE_D2_CH_SEA
 10
0.00172933
 20
0.215077
 30
0
  0
VERTEX
  8
72_ARTEK_AKFURNITURE_D2_CH_SEA
 10
0.00186086
 20
0.213889
 30
0
  0
VERTEX
  8
72_ARTEK_AKFURNITURE_D2_CH_SEA
 10
0.00201559
 20
0.212707
 30
0
  0
VERTEX
  8
72_ARTEK_AKFURNITURE_D2_CH_SEA
 10
0.00219472
 20
0.21153
 30
0
  0
VERTEX
  8
72_ARTEK_AKFURNITURE_D2_CH_SEA
 10
0.0023995
 20
0.21036
 30
0
  0
VERTEX
  8
72_ARTEK_AKFURNITURE_D2_CH_SEA
 10
0.00263113
 20
0.209199
 30
0
  0
VERTEX
  8
72_ARTEK_AKFURNITURE_D2_CH_SEA
 10
0.00289053
 20
0.208047
 30
0
  0
VERTEX
  8
72_ARTEK_AKFURNITURE_D2_CH_SEA
 10
0.00317922
 20
0.206906
 30
0
  0
VERTEX
  8
72_ARTEK_AKFURNITURE_D2_CH_SEA
 10
0.00349813
 20
0.205776
 30
0
  0
VERTEX
  8
72_ARTEK_AKFURNITURE_D2_CH_SEA
 10
0.00374105
 20
0.204988
 30
0
  0
VERTEX
  8
72_ARTEK_AKFURNITURE_D2_CH_SEA
 10
0.00398702
 20
0.204244
 30
0
  0
VERTEX
  8
72_ARTEK_AKFURNITURE_D2_CH_SEA
 10
0.00423727
 20
0.203539
 30
0
  0
VERTEX
  8
72_ARTEK_AKFURNITURE_D2_CH_SEA
 10
0.0044927
 20
0.202868
 30
0
  0
VERTEX
  8
72_ARTEK_AKFURNITURE_D2_CH_SEA
 10
0.00475393
 20
0.202229
 30
0
  0
VERTEX
  8
72_ARTEK_AKFURNITURE_D2_CH_SEA
 10
0.00502218
 20
0.201615
 30
0
  0
VERTEX
  8
72_ARTEK_AKFURNITURE_D2_CH_SEA
 10
0.00529806
 20
0.201023
 30
0
  0
VERTEX
  8
72_ARTEK_AKFURNITURE_D2_CH_SEA
 10
0.00558248
 20
0.200449
 30
0
  0
VERTEX
  8
72_ARTEK_AKFURNITURE_D2_CH_SEA
 10
0.00587637
 20
0.199889
 30
0
  0
VERTEX
  8
72_ARTEK_AKFURNITURE_D2_CH_SEA
 10
0.00618063
 20
0.199337
 30
0
  0
VERTEX
  8
72_ARTEK_AKFURNITURE_D2_CH_SEA
 10
0.00649587
 20
0.19879
 30
0
  0
VERTEX
  8
72_ARTEK_AKFURNITURE_D2_CH_SEA
 10
0.00682333
 20
0.198243
 30
0
  0
VERTEX
  8
72_ARTEK_AKFURNITURE_D2_CH_SEA
 10
0.0071636
 20
0.197692
 30
0
  0
VERTEX
  8
72_ARTEK_AKFURNITURE_D2_CH_SEA
 10
0.00751791
 20
0.197134
 30
0
  0
VERTEX
  8
72_ARTEK_AKFURNITURE_D2_CH_SEA
 10
0.00788686
 20
0.196562
 30
0
  0
VERTEX
  8
72_ARTEK_AKFURNITURE_D2_CH_SEA
 10
0.00827138
 20
0.195974
 30
0
  0
VERTEX
  8
72_ARTEK_AKFURNITURE_D2_CH_SEA
 10
0.00867239
 20
0.195364
 30
0
  0
VERTEX
  8
72_ARTEK_AKFURNITURE_D2_CH_SEA
 10
0.00909048
 20
0.194729
 30
0
  0
VERTEX
  8
72_ARTEK_AKFURNITURE_D2_CH_SEA
 10
0.00952688
 20
0.194065
 30
0
  0
VERTEX
  8
72_ARTEK_AKFURNITURE_D2_CH_SEA
 10
0.00998251
 20
0.193366
 30
0
  0
VERTEX
  8
72_ARTEK_AKFURNITURE_D2_CH_SEA
 10
0.0103972
 20
0.192723
 30
0
  0
VERTEX
  8
72_ARTEK_AKFURNITURE_D2_CH_SEA
 10
0.0107848
 20
0.192117
 30
0
  0
VERTEX
  8
72_ARTEK_AKFURNITURE_D2_CH_SEA
 10
0.0111495
 20
0.191545
 30
0
  0
VERTEX
  8
72_ARTEK_AKFURNITURE_D2_CH_SEA
 10
0.0114959
 20
0.191004
 30
0
  0
VERTEX
  8
72_ARTEK_AKFURNITURE_D2_CH_SEA
 10
0.0118279
 20
0.19049
 30
0
  0
VERTEX
  8
72_ARTEK_AKFURNITURE_D2_CH_SEA
 10
0.0121499
 20
0.190001
 30
0
  0
VERTEX
  8
72_ARTEK_AKFURNITURE_D2_CH_SEA
 10
0.012466
 20
0.189533
 30
0
  0
VERTEX
  8
72_ARTEK_AKFURNITURE_D2_CH_SEA
 10
0.0127804
 20
0.189085
 30
0
  0
VERTEX
  8
72_ARTEK_AKFURNITURE_D2_CH_SEA
 10
0.0130974
 20
0.188651
 30
0
  0
VERTEX
  8
72_ARTEK_AKFURNITURE_D2_CH_SEA
 10
0.0134215
 20
0.18823
 30
0
  0
VERTEX
  8
72_ARTEK_AKFURNITURE_D2_CH_SEA
 10
0.0137563
 20
0.187818
 30
0
  0
VERTEX
  8
72_ARTEK_AKFURNITURE_D2_CH_SEA
 10
0.0141066
 20
0.187413
 30
0
  0
VERTEX
  8
72_ARTEK_AKFURNITURE_D2_CH_SEA
 10
0.0144762
 20
0.187011
 30
0
  0
VERTEX
  8
72_ARTEK_AKFURNITURE_D2_CH_SEA
 10
0.0148696
 20
0.18661
 30
0
  0
VERTEX
  8
72_ARTEK_AKFURNITURE_D2_CH_SEA
 10
0.0152907
 20
0.186205
 30
0
  0
VERTEX
  8
72_ARTEK_AKFURNITURE_D2_CH_SEA
 10
0.0157442
 20
0.185795
 30
0
  0
VERTEX
  8
72_ARTEK_AKFURNITURE_D2_CH_SEA
 10
0.016234
 20
0.185376
 30
0
  0
VERTEX
  8
72_ARTEK_AKFURNITURE_D2_CH_SEA
 10
0.0167644
 20
0.184946
 30
0
  0
VERTEX
  8
72_ARTEK_AKFURNITURE_D2_CH_SEA
 10
0.0173397
 20
0.1845
 30
0
  0
VERTEX
  8
72_ARTEK_AKFURNITURE_D2_CH_SEA
 10
0.0179641
 20
0.184036
 30
0
  0
VERTEX
  8
72_ARTEK_AKFURNITURE_D2_CH_SEA
 10
0.0185769
 20
0.183603
 30
0
  0
VERTEX
  8
72_ARTEK_AKFURNITURE_D2_CH_SEA
 10
0.0191945
 20
0.183193
 30
0
  0
VERTEX
  8
72_ARTEK_AKFURNITURE_D2_CH_SEA
 10
0.0198165
 20
0.182804
 30
0
  0
VERTEX
  8
72_ARTEK_AKFURNITURE_D2_CH_SEA
 10
0.0204436
 20
0.182435
 30
0
  0
VERTEX
  8
72_ARTEK_AKFURNITURE_D2_CH_SEA
 10
0.0210756
 20
0.182087
 30
0
  0
VERTEX
  8
72_ARTEK_AKFURNITURE_D2_CH_SEA
 10
0.0217128
 20
0.181757
 30
0
  0
VERTEX
  8
72_ARTEK_AKFURNITURE_D2_CH_SEA
 10
0.0223552
 20
0.181444
 30
0
  0
VERTEX
  8
72_ARTEK_AKFURNITURE_D2_CH_SEA
 10
0.0230031
 20
0.181148
 30
0
  0
VERTEX
  8
72_ARTEK_AKFURNITURE_D2_CH_SEA
 10
0.0236565
 20
0.180868
 30
0
  0
VERTEX
  8
72_ARTEK_AKFURNITURE_D2_CH_SEA
 10
0.0243154
 20
0.180603
 30
0
  0
VERTEX
  8
72_ARTEK_AKFURNITURE_D2_CH_SEA
 10
0.0249804
 20
0.180352
 30
0
  0
VERTEX
  8
72_ARTEK_AKFURNITURE_D2_CH_SEA
 10
0.0256511
 20
0.180113
 30
0
  0
VERTEX
  8
72_ARTEK_AKFURNITURE_D2_CH_SEA
 10
0.026328
 20
0.179886
 30
0
  0
VERTEX
  8
72_ARTEK_AKFURNITURE_D2_CH_SEA
 10
0.027011
 20
0.17967
 30
0
  0
VERTEX
  8
72_ARTEK_AKFURNITURE_D2_CH_SEA
 10
0.0277004
 20
0.179464
 30
0
  0
VERTEX
  8
72_ARTEK_AKFURNITURE_D2_CH_SEA
 10
0.0283965
 20
0.179266
 30
0
  0
VERTEX
  8
72_ARTEK_AKFURNITURE_D2_CH_SEA
 10
0.029099
 20
0.179077
 30
0
  0
VERTEX
  8
72_ARTEK_AKFURNITURE_D2_CH_SEA
 10
0.0298082
 20
0.178895
 30
0
  0
VERTEX
  8
72_ARTEK_AKFURNITURE_D2_CH_SEA
 10
0.0305245
 20
0.178718
 30
0
  0
VERTEX
  8
72_ARTEK_AKFURNITURE_D2_CH_SEA
 10
0.0312478
 20
0.178547
 30
0
  0
VERTEX
  8
72_ARTEK_AKFURNITURE_D2_CH_SEA
 10
0.0314234
 20
0.178547
 30
0
  0
VERTEX
  8
72_ARTEK_AKFURNITURE_D2_CH_SEA
 10
0.0302709
 20
0.178862
 30
0
  0
VERTEX
  8
72_ARTEK_AKFURNITURE_D2_CH_SEA
 10
0.0277059
 20
0.179687
 30
0
  0
VERTEX
  8
72_ARTEK_AKFURNITURE_D2_CH_SEA
 10
0.0252208
 20
0.180642
 30
0
  0
VERTEX
  8
72_ARTEK_AKFURNITURE_D2_CH_SEA
 10
0.022831
 20
0.181752
 30
0
  0
VERTEX
  8
72_ARTEK_AKFURNITURE_D2_CH_SEA
 10
0.0205517
 20
0.183044
 30
0
  0
VERTEX
  8
72_ARTEK_AKFURNITURE_D2_CH_SEA
 10
0.0183971
 20
0.184541
 30
0
  0
VERTEX
  8
72_ARTEK_AKFURNITURE_D2_CH_SEA
 10
0.016383
 20
0.18627
 30
0
  0
VERTEX
  8
72_ARTEK_AKFURNITURE_D2_CH_SEA
 10
0.0145238
 20
0.188256
 30
0
  0
VERTEX
  8
72_ARTEK_AKFURNITURE_D2_CH_SEA
 10
0.012835
 20
0.190524
 30
0
  0
VERTEX
  8
72_ARTEK_AKFURNITURE_D2_CH_SEA
 10
0.0113311
 20
0.193099
 30
0
  0
VERTEX
  8
72_ARTEK_AKFURNITURE_D2_CH_SEA
 10
0.00897054
 20
0.199207
 30
0
  0
VERTEX
  8
72_ARTEK_AKFURNITURE_D2_CH_SEA
 10
0.00874624
 20
0.200034
 30
0
  0
VERTEX
  8
72_ARTEK_AKFURNITURE_D2_CH_SEA
 10
0.00854543
 20
0.200835
 30
0
  0
VERTEX
  8
72_ARTEK_AKFURNITURE_D2_CH_SEA
 10
0.00836629
 20
0.201613
 30
0
  0
VERTEX
  8
72_ARTEK_AKFURNITURE_D2_CH_SEA
 10
0.00820699
 20
0.20237
 30
0
  0
VERTEX
  8
72_ARTEK_AKFURNITURE_D2_CH_SEA
 10
0.008066
 20
0.20311
 30
0
  0
VERTEX
  8
72_ARTEK_AKFURNITURE_D2_CH_SEA
 10
0.0079421
 20
0.203837
 30
0
  0
VERTEX
  8
72_ARTEK_AKFURNITURE_D2_CH_SEA
 10
0.00783346
 20
0.204552
 30
0
  0
VERTEX
  8
72_ARTEK_AKFURNITURE_D2_CH_SEA
 10
0.00773855
 20
0.205259
 30
0
  0
VERTEX
  8
72_ARTEK_AKFURNITURE_D2_CH_SEA
 10
0.00765554
 20
0.205962
 30
0
  0
VERTEX
  8
72_ARTEK_AKFURNITURE_D2_CH_SEA
 10
0.00758321
 20
0.206663
 30
0
  0
VERTEX
  8
72_ARTEK_AKFURNITURE_D2_CH_SEA
 10
0.00751974
 20
0.207367
 30
0
  0
VERTEX
  8
72_ARTEK_AKFURNITURE_D2_CH_SEA
 10
0.00746328
 20
0.208074
 30
0
  0
VERTEX
  8
72_ARTEK_AKFURNITURE_D2_CH_SEA
 10
0.00741293
 20
0.20879
 30
0
  0
VERTEX
  8
72_ARTEK_AKFURNITURE_D2_CH_SEA
 10
0.00736654
 20
0.209517
 30
0
  0
VERTEX
  8
72_ARTEK_AKFURNITURE_D2_CH_SEA
 10
0.00732259
 20
0.210258
 30
0
  0
VERTEX
  8
72_ARTEK_AKFURNITURE_D2_CH_SEA
 10
0.00727956
 20
0.211016
 30
0
  0
VERTEX
  8
72_ARTEK_AKFURNITURE_D2_CH_SEA
 10
0.00723623
 20
0.211795
 30
0
  0
VERTEX
  8
72_ARTEK_AKFURNITURE_D2_CH_SEA
 10
0.00719015
 20
0.212598
 30
0
  0
VERTEX
  8
72_ARTEK_AKFURNITURE_D2_CH_SEA
 10
0.00714071
 20
0.213427
 30
0
  0
VERTEX
  8
72_ARTEK_AKFURNITURE_D2_CH_SEA
 10
0.00708547
 20
0.214286
 30
0
  0
VERTEX
  8
72_ARTEK_AKFURNITURE_D2_CH_SEA
 10
0.00712575
 20
0.21651
 30
0
  0
VERTEX
  8
72_ARTEK_AKFURNITURE_D2_CH_SEA
 10
0.00718954
 20
0.218733
 30
0
  0
VERTEX
  8
72_ARTEK_AKFURNITURE_D2_CH_SEA
 10
0.00727865
 20
0.220954
 30
0
  0
VERTEX
  8
72_ARTEK_AKFURNITURE_D2_CH_SEA
 10
0.00739614
 20
0.223173
 30
0
  0
VERTEX
  8
72_ARTEK_AKFURNITURE_D2_CH_SEA
 10
0.00754324
 20
0.225389
 30
0
  0
VERTEX
  8
72_ARTEK_AKFURNITURE_D2_CH_SEA
 10
0.00772298
 20
0.227602
 30
0
  0
VERTEX
  8
72_ARTEK_AKFURNITURE_D2_CH_SEA
 10
0.00793722
 20
0.229809
 30
0
  0
VERTEX
  8
72_ARTEK_AKFURNITURE_D2_CH_SEA
 10
0.00818807
 20
0.232011
 30
0
  0
VERTEX
  8
72_ARTEK_AKFURNITURE_D2_CH_SEA
 10
0.00847768
 20
0.234207
 30
0
  0
VERTEX
  8
72_ARTEK_AKFURNITURE_D2_CH_SEA
 10
0.00880849
 20
0.236395
 30
0
  0
VERTEX
  8
72_ARTEK_AKFURNITURE_D2_CH_SEA
 10
0.00918264
 20
0.238576
 30
0
  0
VERTEX
  8
72_ARTEK_AKFURNITURE_D2_CH_SEA
 10
0.00960256
 20
0.240748
 30
0
  0
VERTEX
  8
72_ARTEK_AKFURNITURE_D2_CH_SEA
 10
0.0100698
 20
0.24291
 30
0
  0
VERTEX
  8
72_ARTEK_AKFURNITURE_D2_CH_SEA
 10
0.0105874
 20
0.245062
 30
0
  0
VERTEX
  8
72_ARTEK_AKFURNITURE_D2_CH_SEA
 10
0.0111568
 20
0.247202
 30
0
  0
VERTEX
  8
72_ARTEK_AKFURNITURE_D2_CH_SEA
 10
0.0117806
 20
0.249331
 30
0
  0
VERTEX
  8
72_ARTEK_AKFURNITURE_D2_CH_SEA
 10
0.0124611
 20
0.251446
 30
0
  0
VERTEX
  8
72_ARTEK_AKFURNITURE_D2_CH_SEA
 10
0.0132006
 20
0.253548
 30
0
  0
VERTEX
  8
72_ARTEK_AKFURNITURE_D2_CH_SEA
 10
0.0140007
 20
0.255635
 30
0
  0
VERTEX
  8
72_ARTEK_AKFURNITURE_D2_CH_SEA
 10
0.0148641
 20
0.257708
 30
0
  0
VERTEX
  8
72_ARTEK_AKFURNITURE_D2_CH_SEA
 10
0.0157512
 20
0.259668
 30
0
  0
VERTEX
  8
72_ARTEK_AKFURNITURE_D2_CH_SEA
 10
0.0166964
 20
0.261598
 30
0
  0
VERTEX
  8
72_ARTEK_AKFURNITURE_D2_CH_SEA
 10
0.0176973
 20
0.263498
 30
0
  0
VERTEX
  8
72_ARTEK_AKFURNITURE_D2_CH_SEA
 10
0.0187523
 20
0.265368
 30
0
  0
VERTEX
  8
72_ARTEK_AKFURNITURE_D2_CH_SEA
 10
0.0198592
 20
0.267207
 30
0
  0
VERTEX
  8
72_ARTEK_AKFURNITURE_D2_CH_SEA
 10
0.0210155
 20
0.269017
 30
0
  0
VERTEX
  8
72_ARTEK_AKFURNITURE_D2_CH_SEA
 10
0.0222194
 20
0.270797
 30
0
  0
VERTEX
  8
72_ARTEK_AKFURNITURE_D2_CH_SEA
 10
0.0234685
 20
0.272546
 30
0
  0
VERTEX
  8
72_ARTEK_AKFURNITURE_D2_CH_SEA
 10
0.0247606
 20
0.274266
 30
0
  0
VERTEX
  8
72_ARTEK_AKFURNITURE_D2_CH_SEA
 10
0.026094
 20
0.275955
 30
0
  0
VERTEX
  8
72_ARTEK_AKFURNITURE_D2_CH_SEA
 10
0.027466
 20
0.277614
 30
0
  0
VERTEX
  8
72_ARTEK_AKFURNITURE_D2_CH_SEA
 10
0.0288747
 20
0.279244
 30
0
  0
VERTEX
  8
72_ARTEK_AKFURNITURE_D2_CH_SEA
 10
0.0303182
 20
0.280843
 30
0
  0
VERTEX
  8
72_ARTEK_AKFURNITURE_D2_CH_SEA
 10
0.031794
 20
0.282413
 30
0
  0
VERTEX
  8
72_ARTEK_AKFURNITURE_D2_CH_SEA
 10
0.0333004
 20
0.283953
 30
0
  0
VERTEX
  8
72_ARTEK_AKFURNITURE_D2_CH_SEA
 10
0.0348345
 20
0.285463
 30
0
  0
VERTEX
  8
72_ARTEK_AKFURNITURE_D2_CH_SEA
 10
0.0363949
 20
0.286943
 30
0
  0
VERTEX
  8
72_ARTEK_AKFURNITURE_D2_CH_SEA
 10
0.037979
 20
0.288393
 30
0
  0
VERTEX
  8
72_ARTEK_AKFURNITURE_D2_CH_SEA
 10
0.0395852
 20
0.289813
 30
0
  0
VERTEX
  8
72_ARTEK_AKFURNITURE_D2_CH_SEA
 10
0.0412105
 20
0.291204
 30
0
  0
VERTEX
  8
72_ARTEK_AKFURNITURE_D2_CH_SEA
 10
0.0447832
 20
0.294102
 30
0
  0
VERTEX
  8
72_ARTEK_AKFURNITURE_D2_CH_SEA
 10
0.0484389
 20
0.296859
 30
0
  0
VERTEX
  8
72_ARTEK_AKFURNITURE_D2_CH_SEA
 10
0.0521734
 20
0.299479
 30
0
  0
VERTEX
  8
72_ARTEK_AKFURNITURE_D2_CH_SEA
 10
0.0559823
 20
0.301967
 30
0
  0
VERTEX
  8
72_ARTEK_AKFURNITURE_D2_CH_SEA
 10
0.0598617
 20
0.304329
 30
0
  0
VERTEX
  8
72_ARTEK_AKFURNITURE_D2_CH_SEA
 10
0.063807
 20
0.306568
 30
0
  0
VERTEX
  8
72_ARTEK_AKFURNITURE_D2_CH_SEA
 10
0.0678142
 20
0.308691
 30
0
  0
VERTEX
  8
72_ARTEK_AKFURNITURE_D2_CH_SEA
 10
0.0718792
 20
0.310702
 30
0
  0
VERTEX
  8
72_ARTEK_AKFURNITURE_D2_CH_SEA
 10
0.0759978
 20
0.312605
 30
0
  0
VERTEX
  8
72_ARTEK_AKFURNITURE_D2_CH_SEA
 10
0.0801656
 20
0.314407
 30
0
  0
VERTEX
  8
72_ARTEK_AKFURNITURE_D2_CH_SEA
 10
0.0843786
 20
0.31611
 30
0
  0
VERTEX
  8
72_ARTEK_AKFURNITURE_D2_CH_SEA
 10
0.0886327
 20
0.317722
 30
0
  0
VERTEX
  8
72_ARTEK_AKFURNITURE_D2_CH_SEA
 10
0.0929235
 20
0.319246
 30
0
  0
VERTEX
  8
72_ARTEK_AKFURNITURE_D2_CH_SEA
 10
0.0972472
 20
0.320687
 30
0
  0
VERTEX
  8
72_ARTEK_AKFURNITURE_D2_CH_SEA
 10
0.101599
 20
0.322051
 30
0
  0
VERTEX
  8
72_ARTEK_AKFURNITURE_D2_CH_SEA
 10
0.105975
 20
0.323342
 30
0
  0
VERTEX
  8
72_ARTEK_AKFURNITURE_D2_CH_SEA
 10
0.110371
 20
0.324565
 30
0
  0
VERTEX
  8
72_ARTEK_AKFURNITURE_D2_CH_SEA
 10
0.114783
 20
0.325725
 30
0
  0
VERTEX
  8
72_ARTEK_AKFURNITURE_D2_CH_SEA
 10
0.119207
 20
0.326827
 30
0
  0
VERTEX
  8
72_ARTEK_AKFURNITURE_D2_CH_SEA
 10
0.123638
 20
0.327876
 30
0
  0
VERTEX
  8
72_ARTEK_AKFURNITURE_D2_CH_SEA
 10
0.130147
 20
0.32931
 30
0
  0
VERTEX
  8
72_ARTEK_AKFURNITURE_D2_CH_SEA
 10
0.131214
 20
0.329523
 30
0
  0
VERTEX
  8
72_ARTEK_AKFURNITURE_D2_CH_SEA
 10
0.1325
 20
0.329803
 30
0
  0
VERTEX
  8
72_ARTEK_AKFURNITURE_D2_CH_SEA
 10
0.135269
 20
0.330333
 30
0
  0
VERTEX
  8
72_ARTEK_AKFURNITURE_D2_CH_SEA
 10
0.136673
 20
0.330614
 30
0
  0
VERTEX
  8
72_ARTEK_AKFURNITURE_D2_CH_SEA
 10
0.137704
 20
0.3308
 30
0
  0
VERTEX
  8
72_ARTEK_AKFURNITURE_D2_CH_SEA
 10
0.141401
 20
0.331508
 30
0
  0
VERTEX
  8
72_ARTEK_AKFURNITURE_D2_CH_SEA
 10
0.150337
 20
0.333005
 30
0
  0
VERTEX
  8
72_ARTEK_AKFURNITURE_D2_CH_SEA
 10
0.159305
 20
0.334306
 30
0
  0
VERTEX
  8
72_ARTEK_AKFURNITURE_D2_CH_SEA
 10
0.168301
 20
0.335426
 30
0
  0
VERTEX
  8
72_ARTEK_AKFURNITURE_D2_CH_SEA
 10
0.177323
 20
0.336377
 30
0
  0
VERTEX
  8
72_ARTEK_AKFURNITURE_D2_CH_SEA
 10
0.186366
 20
0.337174
 30
0
  0
VERTEX
  8
72_ARTEK_AKFURNITURE_D2_CH_SEA
 10
0.195428
 20
0.337828
 30
0
  0
VERTEX
  8
72_ARTEK_AKFURNITURE_D2_CH_SEA
 10
0.204506
 20
0.338353
 30
0
  0
VERTEX
  8
72_ARTEK_AKFURNITURE_D2_CH_SEA
 10
0.213595
 20
0.338763
 30
0
  0
VERTEX
  8
72_ARTEK_AKFURNITURE_D2_CH_SEA
 10
0.222692
 20
0.339071
 30
0
  0
VERTEX
  8
72_ARTEK_AKFURNITURE_D2_CH_SEA
 10
0.231795
 20
0.33929
 30
0
  0
VERTEX
  8
72_ARTEK_AKFURNITURE_D2_CH_SEA
 10
0.2409
 20
0.339434
 30
0
  0
VERTEX
  8
72_ARTEK_AKFURNITURE_D2_CH_SEA
 10
0.250004
 20
0.339515
 30
0
  0
VERTEX
  8
72_ARTEK_AKFURNITURE_D2_CH_SEA
 10
0.259102
 20
0.339547
 30
0
  0
VERTEX
  8
72_ARTEK_AKFURNITURE_D2_CH_SEA
 10
0.268193
 20
0.339544
 30
0
  0
VERTEX
  8
72_ARTEK_AKFURNITURE_D2_CH_SEA
 10
0.277272
 20
0.339518
 30
0
  0
VERTEX
  8
72_ARTEK_AKFURNITURE_D2_CH_SEA
 10
0.28105
 20
0.339504
 30
0
  0
VERTEX
  8
72_ARTEK_AKFURNITURE_D2_CH_SEA
 10
0.286475
 20
0.339558
 30
0
  0
VERTEX
  8
72_ARTEK_AKFURNITURE_D2_CH_SEA
 10
0.294155
 20
0.339627
 30
0
  0
VERTEX
  8
72_ARTEK_AKFURNITURE_D2_CH_SEA
 10
0.3001
 20
0.339672
 30
0
  0
VERTEX
  8
72_ARTEK_AKFURNITURE_D2_CH_SEA
 10
0.306045
 20
0.339627
 30
0
  0
VERTEX
  8
72_ARTEK_AKFURNITURE_D2_CH_SEA
 10
0.313725
 20
0.339558
 30
0
  0
VERTEX
  8
72_ARTEK_AKFURNITURE_D2_CH_SEA
 10
0.31915
 20
0.339504
 30
0
  0
VERTEX
  8
72_ARTEK_AKFURNITURE_D2_CH_SEA
 10
0.322928
 20
0.339518
 30
0
  0
VERTEX
  8
72_ARTEK_AKFURNITURE_D2_CH_SEA
 10
0.332007
 20
0.339544
 30
0
  0
VERTEX
  8
72_ARTEK_AKFURNITURE_D2_CH_SEA
 10
0.341098
 20
0.339547
 30
0
  0
VERTEX
  8
72_ARTEK_AKFURNITURE_D2_CH_SEA
 10
0.350196
 20
0.339515
 30
0
  0
VERTEX
  8
72_ARTEK_AKFURNITURE_D2_CH_SEA
 10
0.3593
 20
0.339434
 30
0
  0
VERTEX
  8
72_ARTEK_AKFURNITURE_D2_CH_SEA
 10
0.368405
 20
0.33929
 30
0
  0
VERTEX
  8
72_ARTEK_AKFURNITURE_D2_CH_SEA
 10
0.377508
 20
0.339071
 30
0
  0
VERTEX
  8
72_ARTEK_AKFURNITURE_D2_CH_SEA
 10
0.386605
 20
0.338763
 30
0
  0
VERTEX
  8
72_ARTEK_AKFURNITURE_D2_CH_SEA
 10
0.395694
 20
0.338353
 30
0
  0
VERTEX
  8
72_ARTEK_AKFURNITURE_D2_CH_SEA
 10
0.404772
 20
0.337828
 30
0
  0
VERTEX
  8
72_ARTEK_AKFURNITURE_D2_CH_SEA
 10
0.413834
 20
0.337174
 30
0
  0
VERTEX
  8
72_ARTEK_AKFURNITURE_D2_CH_SEA
 10
0.422877
 20
0.336377
 30
0
  0
VERTEX
  8
72_ARTEK_AKFURNITURE_D2_CH_SEA
 10
0.431899
 20
0.335426
 30
0
  0
VERTEX
  8
72_ARTEK_AKFURNITURE_D2_CH_SEA
 10
0.440895
 20
0.334306
 30
0
  0
VERTEX
  8
72_ARTEK_AKFURNITURE_D2_CH_SEA
 10
0.449863
 20
0.333005
 30
0
  0
VERTEX
  8
72_ARTEK_AKFURNITURE_D2_CH_SEA
 10
0.458799
 20
0.331508
 30
0
  0
VERTEX
  8
72_ARTEK_AKFURNITURE_D2_CH_SEA
 10
0.462496
 20
0.3308
 30
0
  0
VERTEX
  8
72_ARTEK_AKFURNITURE_D2_CH_SEA
 10
0.463527
 20
0.330614
 30
0
  0
VERTEX
  8
72_ARTEK_AKFURNITURE_D2_CH_SEA
 10
0.464931
 20
0.330333
 30
0
  0
VERTEX
  8
72_ARTEK_AKFURNITURE_D2_CH_SEA
 10
0.4677
 20
0.329803
 30
0
  0
VERTEX
  8
72_ARTEK_AKFURNITURE_D2_CH_SEA
 10
0.468986
 20
0.329523
 30
0
  0
VERTEX
  8
72_ARTEK_AKFURNITURE_D2_CH_SEA
 10
0.470053
 20
0.32931
 30
0
  0
VERTEX
  8
72_ARTEK_AKFURNITURE_D2_CH_SEA
 10
0.476562
 20
0.327876
 30
0
  0
VERTEX
  8
72_ARTEK_AKFURNITURE_D2_CH_SEA
 10
0.480993
 20
0.326827
 30
0
  0
VERTEX
  8
72_ARTEK_AKFURNITURE_D2_CH_SEA
 10
0.485417
 20
0.325725
 30
0
  0
VERTEX
  8
72_ARTEK_AKFURNITURE_D2_CH_SEA
 10
0.489829
 20
0.324565
 30
0
  0
VERTEX
  8
72_ARTEK_AKFURNITURE_D2_CH_SEA
 10
0.494225
 20
0.323342
 30
0
  0
VERTEX
  8
72_ARTEK_AKFURNITURE_D2_CH_SEA
 10
0.498601
 20
0.322051
 30
0
  0
VERTEX
  8
72_ARTEK_AKFURNITURE_D2_CH_SEA
 10
0.502953
 20
0.320687
 30
0
  0
VERTEX
  8
72_ARTEK_AKFURNITURE_D2_CH_SEA
 10
0.507277
 20
0.319246
 30
0
  0
VERTEX
  8
72_ARTEK_AKFURNITURE_D2_CH_SEA
 10
0.511567
 20
0.317722
 30
0
  0
VERTEX
  8
72_ARTEK_AKFURNITURE_D2_CH_SEA
 10
0.515821
 20
0.31611
 30
0
  0
VERTEX
  8
72_ARTEK_AKFURNITURE_D2_CH_SEA
 10
0.520034
 20
0.314407
 30
0
  0
VERTEX
  8
72_ARTEK_AKFURNITURE_D2_CH_SEA
 10
0.524202
 20
0.312605
 30
0
  0
VERTEX
  8
72_ARTEK_AKFURNITURE_D2_CH_SEA
 10
0.528321
 20
0.310702
 30
0
  0
VERTEX
  8
72_ARTEK_AKFURNITURE_D2_CH_SEA
 10
0.532386
 20
0.308691
 30
0
  0
VERTEX
  8
72_ARTEK_AKFURNITURE_D2_CH_SEA
 10
0.536393
 20
0.306568
 30
0
  0
VERTEX
  8
72_ARTEK_AKFURNITURE_D2_CH_SEA
 10
0.540338
 20
0.304329
 30
0
  0
VERTEX
  8
72_ARTEK_AKFURNITURE_D2_CH_SEA
 10
0.544218
 20
0.301967
 30
0
  0
VERTEX
  8
72_ARTEK_AKFURNITURE_D2_CH_SEA
 10
0.548027
 20
0.299479
 30
0
  0
VERTEX
  8
72_ARTEK_AKFURNITURE_D2_CH_SEA
 10
0.551761
 20
0.296859
 30
0
  0
VERTEX
  8
72_ARTEK_AKFURNITURE_D2_CH_SEA
 10
0.555417
 20
0.294102
 30
0
  0
VERTEX
  8
72_ARTEK_AKFURNITURE_D2_CH_SEA
 10
0.558989
 20
0.291204
 30
0
  0
VERTEX
  8
72_ARTEK_AKFURNITURE_D2_CH_SEA
 10
0.560615
 20
0.289813
 30
0
  0
VERTEX
  8
72_ARTEK_AKFURNITURE_D2_CH_SEA
 10
0.562221
 20
0.288393
 30
0
  0
VERTEX
  8
72_ARTEK_AKFURNITURE_D2_CH_SEA
 10
0.563805
 20
0.286943
 30
0
  0
VERTEX
  8
72_ARTEK_AKFURNITURE_D2_CH_SEA
 10
0.565365
 20
0.285463
 30
0
  0
VERTEX
  8
72_ARTEK_AKFURNITURE_D2_CH_SEA
 10
0.5669
 20
0.283953
 30
0
  0
VERTEX
  8
72_ARTEK_AKFURNITURE_D2_CH_SEA
 10
0.568406
 20
0.282413
 30
0
  0
VERTEX
  8
72_ARTEK_AKFURNITURE_D2_CH_SEA
 10
0.569882
 20
0.280843
 30
0
  0
VERTEX
  8
72_ARTEK_AKFURNITURE_D2_CH_SEA
 10
0.571325
 20
0.279244
 30
0
  0
VERTEX
  8
72_ARTEK_AKFURNITURE_D2_CH_SEA
 10
0.572734
 20
0.277614
 30
0
  0
VERTEX
  8
72_ARTEK_AKFURNITURE_D2_CH_SEA
 10
0.574106
 20
0.275955
 30
0
  0
VERTEX
  8
72_ARTEK_AKFURNITURE_D2_CH_SEA
 10
0.575439
 20
0.274266
 30
0
  0
VERTEX
  8
72_ARTEK_AKFURNITURE_D2_CH_SEA
 10
0.576731
 20
0.272546
 30
0
  0
VERTEX
  8
72_ARTEK_AKFURNITURE_D2_CH_SEA
 10
0.577981
 20
0.270797
 30
0
  0
VERTEX
  8
72_ARTEK_AKFURNITURE_D2_CH_SEA
 10
0.579184
 20
0.269017
 30
0
  0
VERTEX
  8
72_ARTEK_AKFURNITURE_D2_CH_SEA
 10
0.580341
 20
0.267207
 30
0
  0
VERTEX
  8
72_ARTEK_AKFURNITURE_D2_CH_SEA
 10
0.581448
 20
0.265368
 30
0
  0
VERTEX
  8
72_ARTEK_AKFURNITURE_D2_CH_SEA
 10
0.582503
 20
0.263498
 30
0
  0
VERTEX
  8
72_ARTEK_AKFURNITURE_D2_CH_SEA
 10
0.583504
 20
0.261598
 30
0
  0
VERTEX
  8
72_ARTEK_AKFURNITURE_D2_CH_SEA
 10
0.584449
 20
0.259668
 30
0
  0
VERTEX
  8
72_ARTEK_AKFURNITURE_D2_CH_SEA
 10
0.585336
 20
0.257708
 30
0
  0
VERTEX
  8
72_ARTEK_AKFURNITURE_D2_CH_SEA
 10
0.586199
 20
0.255635
 30
0
  0
VERTEX
  8
72_ARTEK_AKFURNITURE_D2_CH_SEA
 10
0.586999
 20
0.253548
 30
0
  0
VERTEX
  8
72_ARTEK_AKFURNITURE_D2_CH_SEA
 10
0.587739
 20
0.251446
 30
0
  0
VERTEX
  8
72_ARTEK_AKFURNITURE_D2_CH_SEA
 10
0.588419
 20
0.249331
 30
0
  0
VERTEX
  8
72_ARTEK_AKFURNITURE_D2_CH_SEA
 10
0.589043
 20
0.247202
 30
0
  0
VERTEX
  8
72_ARTEK_AKFURNITURE_D2_CH_SEA
 10
0.589613
 20
0.245062
 30
0
  0
VERTEX
  8
72_ARTEK_AKFURNITURE_D2_CH_SEA
 10
0.59013
 20
0.24291
 30
0
  0
VERTEX
  8
72_ARTEK_AKFURNITURE_D2_CH_SEA
 10
0.590597
 20
0.240748
 30
0
  0
VERTEX
  8
72_ARTEK_AKFURNITURE_D2_CH_SEA
 10
0.591017
 20
0.238576
 30
0
  0
VERTEX
  8
72_ARTEK_AKFURNITURE_D2_CH_SEA
 10
0.591392
 20
0.236395
 30
0
  0
VERTEX
  8
72_ARTEK_AKFURNITURE_D2_CH_SEA
 10
0.591722
 20
0.234207
 30
0
  0
VERTEX
  8
72_ARTEK_AKFURNITURE_D2_CH_SEA
 10
0.592012
 20
0.232011
 30
0
  0
VERTEX
  8
72_ARTEK_AKFURNITURE_D2_CH_SEA
 10
0.592263
 20
0.229809
 30
0
  0
VERTEX
  8
72_ARTEK_AKFURNITURE_D2_CH_SEA
 10
0.592477
 20
0.227602
 30
0
  0
VERTEX
  8
72_ARTEK_AKFURNITURE_D2_CH_SEA
 10
0.592657
 20
0.225389
 30
0
  0
VERTEX
  8
72_ARTEK_AKFURNITURE_D2_CH_SEA
 10
0.592804
 20
0.223173
 30
0
  0
VERTEX
  8
72_ARTEK_AKFURNITURE_D2_CH_SEA
 10
0.592921
 20
0.220954
 30
0
  0
VERTEX
  8
72_ARTEK_AKFURNITURE_D2_CH_SEA
 10
0.59301
 20
0.218733
 30
0
  0
VERTEX
  8
72_ARTEK_AKFURNITURE_D2_CH_SEA
 10
0.593074
 20
0.21651
 30
0
  0
VERTEX
  8
72_ARTEK_AKFURNITURE_D2_CH_SEA
 10
0.593115
 20
0.214286
 30
0
  0
VERTEX
  8
72_ARTEK_AKFURNITURE_D2_CH_SEA
 10
0.593059
 20
0.213427
 30
0
  0
VERTEX
  8
72_ARTEK_AKFURNITURE_D2_CH_SEA
 10
0.59301
 20
0.212598
 30
0
  0
VERTEX
  8
72_ARTEK_AKFURNITURE_D2_CH_SEA
 10
0.592964
 20
0.211795
 30
0
  0
VERTEX
  8
72_ARTEK_AKFURNITURE_D2_CH_SEA
 10
0.59292
 20
0.211016
 30
0
  0
VERTEX
  8
72_ARTEK_AKFURNITURE_D2_CH_SEA
 10
0.592877
 20
0.210258
 30
0
  0
VERTEX
  8
72_ARTEK_AKFURNITURE_D2_CH_SEA
 10
0.592833
 20
0.209517
 30
0
  0
VERTEX
  8
72_ARTEK_AKFURNITURE_D2_CH_SEA
 10
0.592787
 20
0.20879
 30
0
  0
VERTEX
  8
72_ARTEK_AKFURNITURE_D2_CH_SEA
 10
0.592737
 20
0.208074
 30
0
  0
VERTEX
  8
72_ARTEK_AKFURNITURE_D2_CH_SEA
 10
0.59268
 20
0.207367
 30
0
  0
VERTEX
  8
72_ARTEK_AKFURNITURE_D2_CH_SEA
 10
0.592617
 20
0.206663
 30
0
  0
VERTEX
  8
72_ARTEK_AKFURNITURE_D2_CH_SEA
 10
0.592544
 20
0.205962
 30
0
  0
VERTEX
  8
72_ARTEK_AKFURNITURE_D2_CH_SEA
 10
0.592461
 20
0.205259
 30
0
  0
VERTEX
  8
72_ARTEK_AKFURNITURE_D2_CH_SEA
 10
0.592367
 20
0.204552
 30
0
  0
VERTEX
  8
72_ARTEK_AKFURNITURE_D2_CH_SEA
 10
0.592258
 20
0.203837
 30
0
  0
VERTEX
  8
72_ARTEK_AKFURNITURE_D2_CH_SEA
 10
0.592134
 20
0.20311
 30
0
  0
VERTEX
  8
72_ARTEK_AKFURNITURE_D2_CH_SEA
 10
0.591993
 20
0.20237
 30
0
  0
VERTEX
  8
72_ARTEK_AKFURNITURE_D2_CH_SEA
 10
0.591834
 20
0.201613
 30
0
  0
VERTEX
  8
72_ARTEK_AKFURNITURE_D2_CH_SEA
 10
0.591655
 20
0.200835
 30
0
  0
VERTEX
  8
72_ARTEK_AKFURNITURE_D2_CH_SEA
 10
0.591454
 20
0.200034
 30
0
  0
VERTEX
  8
72_ARTEK_AKFURNITURE_D2_CH_SEA
 10
0.591229
 20
0.199207
 30
0
  0
VERTEX
  8
72_ARTEK_AKFURNITURE_D2_CH_SEA
 10
0.588869
 20
0.193099
 30
0
  0
VERTEX
  8
72_ARTEK_AKFURNITURE_D2_CH_SEA
 10
0.587365
 20
0.190524
 30
0
  0
VERTEX
  8
72_ARTEK_AKFURNITURE_D2_CH_SEA
 10
0.585676
 20
0.188256
 30
0
  0
VERTEX
  8
72_ARTEK_AKFURNITURE_D2_CH_SEA
 10
0.583817
 20
0.18627
 30
0
  0
VERTEX
  8
72_ARTEK_AKFURNITURE_D2_CH_SEA
 10
0.581803
 20
0.184541
 30
0
  0
VERTEX
  8
72_ARTEK_AKFURNITURE_D2_CH_SEA
 10
0.579648
 20
0.183044
 30
0
  0
VERTEX
  8
72_ARTEK_AKFURNITURE_D2_CH_SEA
 10
0.577369
 20
0.181752
 30
0
  0
VERTEX
  8
72_ARTEK_AKFURNITURE_D2_CH_SEA
 10
0.574979
 20
0.180642
 30
0
  0
VERTEX
  8
72_ARTEK_AKFURNITURE_D2_CH_SEA
 10
0.572494
 20
0.179687
 30
0
  0
VERTEX
  8
72_ARTEK_AKFURNITURE_D2_CH_SEA
 10
0.569929
 20
0.178862
 30
0
  0
VERTEX
  8
72_ARTEK_AKFURNITURE_D2_CH_SEA
 10
0.568777
 20
0.178547
 30
0
  0
VERTEX
  8
72_ARTEK_AKFURNITURE_D2_CH_SEA
 10
0.568952
 20
0.178547
 30
0
  0
VERTEX
  8
72_ARTEK_AKFURNITURE_D2_CH_SEA
 10
0.569675
 20
0.178718
 30
0
  0
VERTEX
  8
72_ARTEK_AKFURNITURE_D2_CH_SEA
 10
0.570392
 20
0.178895
 30
0
  0
VERTEX
  8
72_ARTEK_AKFURNITURE_D2_CH_SEA
 10
0.571101
 20
0.179077
 30
0
  0
VERTEX
  8
72_ARTEK_AKFURNITURE_D2_CH_SEA
 10
0.571803
 20
0.179266
 30
0
  0
VERTEX
  8
72_ARTEK_AKFURNITURE_D2_CH_SEA
 10
0.5725
 20
0.179464
 30
0
  0
VERTEX
  8
72_ARTEK_AKFURNITURE_D2_CH_SEA
 10
0.573189
 20
0.17967
 30
0
  0
VERTEX
  8
72_ARTEK_AKFURNITURE_D2_CH_SEA
 10
0.573872
 20
0.179886
 30
0
  0
VERTEX
  8
72_ARTEK_AKFURNITURE_D2_CH_SEA
 10
0.574549
 20
0.180113
 30
0
  0
VERTEX
  8
72_ARTEK_AKFURNITURE_D2_CH_SEA
 10
0.57522
 20
0.180352
 30
0
  0
VERTEX
  8
72_ARTEK_AKFURNITURE_D2_CH_SEA
 10
0.575885
 20
0.180603
 30
0
  0
VERTEX
  8
72_ARTEK_AKFURNITURE_D2_CH_SEA
 10
0.576543
 20
0.180868
 30
0
  0
VERTEX
  8
72_ARTEK_AKFURNITURE_D2_CH_SEA
 10
0.577197
 20
0.181148
 30
0
  0
VERTEX
  8
72_ARTEK_AKFURNITURE_D2_CH_SEA
 10
0.577845
 20
0.181444
 30
0
  0
VERTEX
  8
72_ARTEK_AKFURNITURE_D2_CH_SEA
 10
0.578487
 20
0.181757
 30
0
  0
VERTEX
  8
72_ARTEK_AKFURNITURE_D2_CH_SEA
 10
0.579124
 20
0.182087
 30
0
  0
VERTEX
  8
72_ARTEK_AKFURNITURE_D2_CH_SEA
 10
0.579756
 20
0.182435
 30
0
  0
VERTEX
  8
72_ARTEK_AKFURNITURE_D2_CH_SEA
 10
0.580384
 20
0.182804
 30
0
  0
VERTEX
  8
72_ARTEK_AKFURNITURE_D2_CH_SEA
 10
0.581005
 20
0.183193
 30
0
  0
VERTEX
  8
72_ARTEK_AKFURNITURE_D2_CH_SEA
 10
0.581623
 20
0.183603
 30
0
  0
VERTEX
  8
72_ARTEK_AKFURNITURE_D2_CH_SEA
 10
0.582236
 20
0.184036
 30
0
  0
VERTEX
  8
72_ARTEK_AKFURNITURE_D2_CH_SEA
 10
0.58286
 20
0.1845
 30
0
  0
VERTEX
  8
72_ARTEK_AKFURNITURE_D2_CH_SEA
 10
0.583436
 20
0.184946
 30
0
  0
VERTEX
  8
72_ARTEK_AKFURNITURE_D2_CH_SEA
 10
0.583966
 20
0.185376
 30
0
  0
VERTEX
  8
72_ARTEK_AKFURNITURE_D2_CH_SEA
 10
0.584456
 20
0.185795
 30
0
  0
VERTEX
  8
72_ARTEK_AKFURNITURE_D2_CH_SEA
 10
0.584909
 20
0.186205
 30
0
  0
VERTEX
  8
72_ARTEK_AKFURNITURE_D2_CH_SEA
 10
0.58533
 20
0.18661
 30
0
  0
VERTEX
  8
72_ARTEK_AKFURNITURE_D2_CH_SEA
 10
0.585724
 20
0.187011
 30
0
  0
VERTEX
  8
72_ARTEK_AKFURNITURE_D2_CH_SEA
 10
0.586093
 20
0.187413
 30
0
  0
VERTEX
  8
72_ARTEK_AKFURNITURE_D2_CH_SEA
 10
0.586444
 20
0.187818
 30
0
  0
VERTEX
  8
72_ARTEK_AKFURNITURE_D2_CH_SEA
 10
0.586778
 20
0.18823
 30
0
  0
VERTEX
  8
72_ARTEK_AKFURNITURE_D2_CH_SEA
 10
0.587103
 20
0.188651
 30
0
  0
VERTEX
  8
72_ARTEK_AKFURNITURE_D2_CH_SEA
 10
0.58742
 20
0.189085
 30
0
  0
VERTEX
  8
72_ARTEK_AKFURNITURE_D2_CH_SEA
 10
0.587734
 20
0.189533
 30
0
  0
VERTEX
  8
72_ARTEK_AKFURNITURE_D2_CH_SEA
 10
0.58805
 20
0.190001
 30
0
  0
VERTEX
  8
72_ARTEK_AKFURNITURE_D2_CH_SEA
 10
0.588372
 20
0.19049
 30
0
  0
VERTEX
  8
72_ARTEK_AKFURNITURE_D2_CH_SEA
 10
0.588704
 20
0.191004
 30
0
  0
VERTEX
  8
72_ARTEK_AKFURNITURE_D2_CH_SEA
 10
0.58905
 20
0.191545
 30
0
  0
VERTEX
  8
72_ARTEK_AKFURNITURE_D2_CH_SEA
 10
0.589415
 20
0.192117
 30
0
  0
VERTEX
  8
72_ARTEK_AKFURNITURE_D2_CH_SEA
 10
0.589803
 20
0.192723
 30
0
  0
VERTEX
  8
72_ARTEK_AKFURNITURE_D2_CH_SEA
 10
0.590217
 20
0.193366
 30
0
  0
VERTEX
  8
72_ARTEK_AKFURNITURE_D2_CH_SEA
 10
0.590673
 20
0.194065
 30
0
  0
VERTEX
  8
72_ARTEK_AKFURNITURE_D2_CH_SEA
 10
0.59111
 20
0.194729
 30
0
  0
VERTEX
  8
72_ARTEK_AKFURNITURE_D2_CH_SEA
 10
0.591528
 20
0.195364
 30
0
  0
VERTEX
  8
72_ARTEK_AKFURNITURE_D2_CH_SEA
 10
0.591929
 20
0.195974
 30
0
  0
VERTEX
  8
72_ARTEK_AKFURNITURE_D2_CH_SEA
 10
0.592313
 20
0.196562
 30
0
  0
VERTEX
  8
72_ARTEK_AKFURNITURE_D2_CH_SEA
 10
0.592682
 20
0.197134
 30
0
  0
VERTEX
  8
72_ARTEK_AKFURNITURE_D2_CH_SEA
 10
0.593036
 20
0.197692
 30
0
  0
VERTEX
  8
72_ARTEK_AKFURNITURE_D2_CH_SEA
 10
0.593377
 20
0.198243
 30
0
  0
VERTEX
  8
72_ARTEK_AKFURNITURE_D2_CH_SEA
 10
0.593704
 20
0.19879
 30
0
  0
VERTEX
  8
72_ARTEK_AKFURNITURE_D2_CH_SEA
 10
0.594019
 20
0.199337
 30
0
  0
VERTEX
  8
72_ARTEK_AKFURNITURE_D2_CH_SEA
 10
0.594324
 20
0.199889
 30
0
  0
VERTEX
  8
72_ARTEK_AKFURNITURE_D2_CH_SEA
 10
0.594618
 20
0.200449
 30
0
  0
VERTEX
  8
72_ARTEK_AKFURNITURE_D2_CH_SEA
 10
0.594902
 20
0.201023
 30
0
  0
VERTEX
  8
72_ARTEK_AKFURNITURE_D2_CH_SEA
 10
0.595178
 20
0.201615
 30
0
  0
VERTEX
  8
72_ARTEK_AKFURNITURE_D2_CH_SEA
 10
0.595446
 20
0.202229
 30
0
  0
VERTEX
  8
72_ARTEK_AKFURNITURE_D2_CH_SEA
 10
0.595707
 20
0.202868
 30
0
  0
VERTEX
  8
72_ARTEK_AKFURNITURE_D2_CH_SEA
 10
0.595963
 20
0.203539
 30
0
  0
VERTEX
  8
72_ARTEK_AKFURNITURE_D2_CH_SEA
 10
0.596213
 20
0.204244
 30
0
  0
VERTEX
  8
72_ARTEK_AKFURNITURE_D2_CH_SEA
 10
0.596459
 20
0.204988
 30
0
  0
VERTEX
  8
72_ARTEK_AKFURNITURE_D2_CH_SEA
 10
0.596702
 20
0.205776
 30
0
  0
VERTEX
  8
72_ARTEK_AKFURNITURE_D2_CH_SEA
 10
0.597021
 20
0.206906
 30
0
  0
VERTEX
  8
72_ARTEK_AKFURNITURE_D2_CH_SEA
 10
0.597309
 20
0.208047
 30
0
  0
VERTEX
  8
72_ARTEK_AKFURNITURE_D2_CH_SEA
 10
0.597569
 20
0.209199
 30
0
  0
VERTEX
  8
72_ARTEK_AKFURNITURE_D2_CH_SEA
 10
0.5978
 20
0.21036
 30
0
  0
VERTEX
  8
72_ARTEK_AKFURNITURE_D2_CH_SEA
 10
0.598005
 20
0.21153
 30
0
  0
VERTEX
  8
72_ARTEK_AKFURNITURE_D2_CH_SEA
 10
0.598184
 20
0.212707
 30
0
  0
VERTEX
  8
72_ARTEK_AKFURNITURE_D2_CH_SEA
 10
0.598339
 20
0.213889
 30
0
  0
VERTEX
  8
72_ARTEK_AKFURNITURE_D2_CH_SEA
 10
0.598471
 20
0.215077
 30
0
  0
VERTEX
  8
72_ARTEK_AKFURNITURE_D2_CH_SEA
 10
0.59858
 20
0.216269
 30
0
  0
VERTEX
  8
72_ARTEK_AKFURNITURE_D2_CH_SEA
 10
0.598669
 20
0.217464
 30
0
  0
VERTEX
  8
72_ARTEK_AKFURNITURE_D2_CH_SEA
 10
0.598738
 20
0.21866
 30
0
  0
VERTEX
  8
72_ARTEK_AKFURNITURE_D2_CH_SEA
 10
0.598789
 20
0.219858
 30
0
  0
VERTEX
  8
72_ARTEK_AKFURNITURE_D2_CH_SEA
 10
0.598822
 20
0.221055
 30
0
  0
VERTEX
  8
72_ARTEK_AKFURNITURE_D2_CH_SEA
 10
0.59884
 20
0.22225
 30
0
  0
VERTEX
  8
72_ARTEK_AKFURNITURE_D2_CH_SEA
 10
0.598842
 20
0.223443
 30
0
  0
VERTEX
  8
72_ARTEK_AKFURNITURE_D2_CH_SEA
 10
0.598831
 20
0.224632
 30
0
  0
VERTEX
  8
72_ARTEK_AKFURNITURE_D2_CH_SEA
 10
0.598808
 20
0.225817
 30
0
  0
VERTEX
  8
72_ARTEK_AKFURNITURE_D2_CH_SEA
 10
0.598773
 20
0.226996
 30
0
  0
VERTEX
  8
72_ARTEK_AKFURNITURE_D2_CH_SEA
 10
0.598728
 20
0.228169
 30
0
  0
VERTEX
  8
72_ARTEK_AKFURNITURE_D2_CH_SEA
 10
0.598675
 20
0.229333
 30
0
  0
VERTEX
  8
72_ARTEK_AKFURNITURE_D2_CH_SEA
 10
0.598541
 20
0.231598
 30
0
  0
VERTEX
  8
72_ARTEK_AKFURNITURE_D2_CH_SEA
 10
0.598364
 20
0.233878
 30
0
  0
VERTEX
  8
72_ARTEK_AKFURNITURE_D2_CH_SEA
 10
0.598141
 20
0.236168
 30
0
  0
VERTEX
  8
72_ARTEK_AKFURNITURE_D2_CH_SEA
 10
0.597873
 20
0.238466
 30
0
  0
VERTEX
  8
72_ARTEK_AKFURNITURE_D2_CH_SEA
 10
0.597559
 20
0.240767
 30
0
  0
VERTEX
  8
72_ARTEK_AKFURNITURE_D2_CH_SEA
 10
0.597196
 20
0.24307
 30
0
  0
VERTEX
  8
72_ARTEK_AKFURNITURE_D2_CH_SEA
 10
0.596784
 20
0.24537
 30
0
  0
VERTEX
  8
72_ARTEK_AKFURNITURE_D2_CH_SEA
 10
0.596322
 20
0.247664
 30
0
  0
VERTEX
  8
72_ARTEK_AKFURNITURE_D2_CH_SEA
 10
0.595808
 20
0.249949
 30
0
  0
VERTEX
  8
72_ARTEK_AKFURNITURE_D2_CH_SEA
 10
0.595242
 20
0.252223
 30
0
  0
VERTEX
  8
72_ARTEK_AKFURNITURE_D2_CH_SEA
 10
0.594622
 20
0.25448
 30
0
  0
VERTEX
  8
72_ARTEK_AKFURNITURE_D2_CH_SEA
 10
0.593947
 20
0.256718
 30
0
  0
VERTEX
  8
72_ARTEK_AKFURNITURE_D2_CH_SEA
 10
0.593217
 20
0.258935
 30
0
  0
VERTEX
  8
72_ARTEK_AKFURNITURE_D2_CH_SEA
 10
0.59243
 20
0.261126
 30
0
  0
VERTEX
  8
72_ARTEK_AKFURNITURE_D2_CH_SEA
 10
0.591584
 20
0.263288
 30
0
  0
VERTEX
  8
72_ARTEK_AKFURNITURE_D2_CH_SEA
 10
0.59068
 20
0.265418
 30
0
  0
VERTEX
  8
72_ARTEK_AKFURNITURE_D2_CH_SEA
 10
0.589715
 20
0.267513
 30
0
  0
VERTEX
  8
72_ARTEK_AKFURNITURE_D2_CH_SEA
 10
0.588689
 20
0.269569
 30
0
  0
VERTEX
  8
72_ARTEK_AKFURNITURE_D2_CH_SEA
 10
0.587601
 20
0.271583
 30
0
  0
VERTEX
  8
72_ARTEK_AKFURNITURE_D2_CH_SEA
 10
0.586449
 20
0.273553
 30
0
  0
VERTEX
  8
72_ARTEK_AKFURNITURE_D2_CH_SEA
 10
0.584799
 20
0.276159
 30
0
  0
VERTEX
  8
72_ARTEK_AKFURNITURE_D2_CH_SEA
 10
0.58306
 20
0.27871
 30
0
  0
VERTEX
  8
72_ARTEK_AKFURNITURE_D2_CH_SEA
 10
0.581235
 20
0.281206
 30
0
  0
VERTEX
  8
72_ARTEK_AKFURNITURE_D2_CH_SEA
 10
0.579328
 20
0.283646
 30
0
  0
VERTEX
  8
72_ARTEK_AKFURNITURE_D2_CH_SEA
 10
0.577343
 20
0.28603
 30
0
  0
VERTEX
  8
72_ARTEK_AKFURNITURE_D2_CH_SEA
 10
0.575285
 20
0.288357
 30
0
  0
VERTEX
  8
72_ARTEK_AKFURNITURE_D2_CH_SEA
 10
0.573156
 20
0.290628
 30
0
  0
VERTEX
  8
72_ARTEK_AKFURNITURE_D2_CH_SEA
 10
0.570962
 20
0.292841
 30
0
  0
VERTEX
  8
72_ARTEK_AKFURNITURE_D2_CH_SEA
 10
0.568706
 20
0.294996
 30
0
  0
VERTEX
  8
72_ARTEK_AKFURNITURE_D2_CH_SEA
 10
0.566392
 20
0.297093
 30
0
  0
VERTEX
  8
72_ARTEK_AKFURNITURE_D2_CH_SEA
 10
0.564025
 20
0.299132
 30
0
  0
VERTEX
  8
72_ARTEK_AKFURNITURE_D2_CH_SEA
 10
0.561607
 20
0.301112
 30
0
  0
VERTEX
  8
72_ARTEK_AKFURNITURE_D2_CH_SEA
 10
0.559144
 20
0.303033
 30
0
  0
VERTEX
  8
72_ARTEK_AKFURNITURE_D2_CH_SEA
 10
0.556638
 20
0.304895
 30
0
  0
VERTEX
  8
72_ARTEK_AKFURNITURE_D2_CH_SEA
 10
0.554095
 20
0.306696
 30
0
  0
VERTEX
  8
72_ARTEK_AKFURNITURE_D2_CH_SEA
 10
0.551518
 20
0.308437
 30
0
  0
VERTEX
  8
72_ARTEK_AKFURNITURE_D2_CH_SEA
 10
0.548911
 20
0.310118
 30
0
  0
VERTEX
  8
72_ARTEK_AKFURNITURE_D2_CH_SEA
 10
0.546278
 20
0.311737
 30
0
  0
VERTEX
  8
72_ARTEK_AKFURNITURE_D2_CH_SEA
 10
0.543624
 20
0.313294
 30
0
  0
VERTEX
  8
72_ARTEK_AKFURNITURE_D2_CH_SEA
 10
0.540951
 20
0.31479
 30
0
  0
VERTEX
  8
72_ARTEK_AKFURNITURE_D2_CH_SEA
 10
0.538051
 20
0.316337
 30
0
  0
VERTEX
  8
72_ARTEK_AKFURNITURE_D2_CH_SEA
 10
0.535123
 20
0.317825
 30
0
  0
VERTEX
  8
72_ARTEK_AKFURNITURE_D2_CH_SEA
 10
0.532169
 20
0.319256
 30
0
  0
VERTEX
  8
72_ARTEK_AKFURNITURE_D2_CH_SEA
 10
0.52919
 20
0.320631
 30
0
  0
VERTEX
  8
72_ARTEK_AKFURNITURE_D2_CH_SEA
 10
0.526187
 20
0.321954
 30
0
  0
VERTEX
  8
72_ARTEK_AKFURNITURE_D2_CH_SEA
 10
0.523162
 20
0.323225
 30
0
  0
VERTEX
  8
72_ARTEK_AKFURNITURE_D2_CH_SEA
 10
0.520116
 20
0.324446
 30
0
  0
VERTEX
  8
72_ARTEK_AKFURNITURE_D2_CH_SEA
 10
0.517051
 20
0.325619
 30
0
  0
VERTEX
  8
72_ARTEK_AKFURNITURE_D2_CH_SEA
 10
0.513967
 20
0.326747
 30
0
  0
VERTEX
  8
72_ARTEK_AKFURNITURE_D2_CH_SEA
 10
0.510868
 20
0.327831
 30
0
  0
VERTEX
  8
72_ARTEK_AKFURNITURE_D2_CH_SEA
 10
0.507752
 20
0.328872
 30
0
  0
VERTEX
  8
72_ARTEK_AKFURNITURE_D2_CH_SEA
 10
0.504624
 20
0.329874
 30
0
  0
VERTEX
  8
72_ARTEK_AKFURNITURE_D2_CH_SEA
 10
0.501482
 20
0.330837
 30
0
  0
VERTEX
  8
72_ARTEK_AKFURNITURE_D2_CH_SEA
 10
0.49833
 20
0.331764
 30
0
  0
VERTEX
  8
72_ARTEK_AKFURNITURE_D2_CH_SEA
 10
0.495168
 20
0.332657
 30
0
  0
VERTEX
  8
72_ARTEK_AKFURNITURE_D2_CH_SEA
 10
0.491998
 20
0.333517
 30
0
  0
VERTEX
  8
72_ARTEK_AKFURNITURE_D2_CH_SEA
 10
0.488822
 20
0.334346
 30
0
  0
VERTEX
  8
72_ARTEK_AKFURNITURE_D2_CH_SEA
 10
0.48564
 20
0.335146
 30
0
  0
VERTEX
  8
72_ARTEK_AKFURNITURE_D2_CH_SEA
 10
0.482454
 20
0.335919
 30
0
  0
VERTEX
  8
72_ARTEK_AKFURNITURE_D2_CH_SEA
 10
0.479265
 20
0.336667
 30
0
  0
VERTEX
  8
72_ARTEK_AKFURNITURE_D2_CH_SEA
 10
0.47166
 20
0.338333
 30
0
  0
VERTEX
  8
72_ARTEK_AKFURNITURE_D2_CH_SEA
 10
0.46403
 20
0.339831
 30
0
  0
VERTEX
  8
72_ARTEK_AKFURNITURE_D2_CH_SEA
 10
0.456376
 20
0.34117
 30
0
  0
VERTEX
  8
72_ARTEK_AKFURNITURE_D2_CH_SEA
 10
0.448702
 20
0.342359
 30
0
  0
VERTEX
  8
72_ARTEK_AKFURNITURE_D2_CH_SEA
 10
0.441008
 20
0.343408
 30
0
  0
VERTEX
  8
72_ARTEK_AKFURNITURE_D2_CH_SEA
 10
0.433296
 20
0.344326
 30
0
  0
VERTEX
  8
72_ARTEK_AKFURNITURE_D2_CH_SEA
 10
0.425569
 20
0.345121
 30
0
  0
VERTEX
  8
72_ARTEK_AKFURNITURE_D2_CH_SEA
 10
0.417829
 20
0.345804
 30
0
  0
VERTEX
  8
72_ARTEK_AKFURNITURE_D2_CH_SEA
 10
0.410076
 20
0.346383
 30
0
  0
VERTEX
  8
72_ARTEK_AKFURNITURE_D2_CH_SEA
 10
0.402314
 20
0.346867
 30
0
  0
VERTEX
  8
72_ARTEK_AKFURNITURE_D2_CH_SEA
 10
0.394544
 20
0.347265
 30
0
  0
VERTEX
  8
72_ARTEK_AKFURNITURE_D2_CH_SEA
 10
0.386768
 20
0.347588
 30
0
  0
VERTEX
  8
72_ARTEK_AKFURNITURE_D2_CH_SEA
 10
0.378988
 20
0.347842
 30
0
  0
VERTEX
  8
72_ARTEK_AKFURNITURE_D2_CH_SEA
 10
0.371205
 20
0.348039
 30
0
  0
VERTEX
  8
72_ARTEK_AKFURNITURE_D2_CH_SEA
 10
0.363422
 20
0.348187
 30
0
  0
VERTEX
  8
72_ARTEK_AKFURNITURE_D2_CH_SEA
 10
0.355641
 20
0.348294
 30
0
  0
VERTEX
  8
72_ARTEK_AKFURNITURE_D2_CH_SEA
 10
0.347864
 20
0.348371
 30
0
  0
VERTEX
  8
72_ARTEK_AKFURNITURE_D2_CH_SEA
 10
0.340092
 20
0.348427
 30
0
  0
VERTEX
  8
72_ARTEK_AKFURNITURE_D2_CH_SEA
 10
0.332327
 20
0.34847
 30
0
  0
VERTEX
  8
72_ARTEK_AKFURNITURE_D2_CH_SEA
 10
0.324571
 20
0.34851
 30
0
  0
VERTEX
  8
72_ARTEK_AKFURNITURE_D2_CH_SEA
 10
0.320672
 20
0.348528
 30
0
  0
VERTEX
  8
72_ARTEK_AKFURNITURE_D2_CH_SEA
 10
0.316772
 20
0.348542
 30
0
  0
VERTEX
  8
72_ARTEK_AKFURNITURE_D2_CH_SEA
 10
0.312873
 20
0.348552
 30
0
  0
VERTEX
  8
72_ARTEK_AKFURNITURE_D2_CH_SEA
 10
0.310926
 20
0.348554
 30
0
  0
SEQEND
  0
POLYLINE
  8
72_ARTEK_AKFURNITURE_D2_CH_SEA
 66
     1
 70
     0
 10
0.0
 20
0.0
 30
0.0
  0
VERTEX
  8
72_ARTEK_AKFURNITURE_D2_CH_SEA
 10
0.3126
 20
-0
 30
0
  0
VERTEX
  8
72_ARTEK_AKFURNITURE_D2_CH_SEA
 10
0.31236
 20
0.00243863
 30
0
  0
VERTEX
  8
72_ARTEK_AKFURNITURE_D2_CH_SEA
 10
0.311648
 20
0.00478354
 30
0
  0
VERTEX
  8
72_ARTEK_AKFURNITURE_D2_CH_SEA
 10
0.310493
 20
0.00694463
 30
0
  0
VERTEX
  8
72_ARTEK_AKFURNITURE_D2_CH_SEA
 10
0.308939
 20
0.00883883
 30
0
  0
VERTEX
  8
72_ARTEK_AKFURNITURE_D2_CH_SEA
 10
0.307045
 20
0.0103934
 30
0
  0
VERTEX
  8
72_ARTEK_AKFURNITURE_D2_CH_SEA
 10
0.304884
 20
0.0115485
 30
0
  0
VERTEX
  8
72_ARTEK_AKFURNITURE_D2_CH_SEA
 10
0.302539
 20
0.0122598
 30
0
  0
VERTEX
  8
72_ARTEK_AKFURNITURE_D2_CH_SEA
 10
0.3001
 20
0.0125
 30
0
  0
VERTEX
  8
72_ARTEK_AKFURNITURE_D2_CH_SEA
 10
0.297661
 20
0.0122598
 30
0
  0
VERTEX
  8
72_ARTEK_AKFURNITURE_D2_CH_SEA
 10
0.295316
 20
0.0115485
 30
0
  0
VERTEX
  8
72_ARTEK_AKFURNITURE_D2_CH_SEA
 10
0.293155
 20
0.0103934
 30
0
  0
VERTEX
  8
72_ARTEK_AKFURNITURE_D2_CH_SEA
 10
0.291261
 20
0.00883883
 30
0
  0
VERTEX
  8
72_ARTEK_AKFURNITURE_D2_CH_SEA
 10
0.289707
 20
0.00694463
 30
0
  0
VERTEX
  8
72_ARTEK_AKFURNITURE_D2_CH_SEA
 10
0.288552
 20
0.00478354
 30
0
  0
VERTEX
  8
72_ARTEK_AKFURNITURE_D2_CH_SEA
 10
0.28784
 20
0.00243863
 30
0
  0
VERTEX
  8
72_ARTEK_AKFURNITURE_D2_CH_SEA
 10
0.2876
 20
3.15316e-018
 30
0
  0
VERTEX
  8
72_ARTEK_AKFURNITURE_D2_CH_SEA
 10
0.28784
 20
-0.00243863
 30
0
  0
VERTEX
  8
72_ARTEK_AKFURNITURE_D2_CH_SEA
 10
0.288552
 20
-0.00478354
 30
0
  0
VERTEX
  8
72_ARTEK_AKFURNITURE_D2_CH_SEA
 10
0.289707
 20
-0.00694463
 30
0
  0
VERTEX
  8
72_ARTEK_AKFURNITURE_D2_CH_SEA
 10
0.291261
 20
-0.00883883
 30
0
  0
VERTEX
  8
72_ARTEK_AKFURNITURE_D2_CH_SEA
 10
0.293155
 20
-0.0103934
 30
0
  0
VERTEX
  8
72_ARTEK_AKFURNITURE_D2_CH_SEA
 10
0.295316
 20
-0.0115485
 30
0
  0
VERTEX
  8
72_ARTEK_AKFURNITURE_D2_CH_SEA
 10
0.297661
 20
-0.0122598
 30
0
  0
VERTEX
  8
72_ARTEK_AKFURNITURE_D2_CH_SEA
 10
0.3001
 20
-0.0125
 30
0
  0
VERTEX
  8
72_ARTEK_AKFURNITURE_D2_CH_SEA
 10
0.302539
 20
-0.0122598
 30
0
  0
VERTEX
  8
72_ARTEK_AKFURNITURE_D2_CH_SEA
 10
0.304884
 20
-0.0115485
 30
0
  0
VERTEX
  8
72_ARTEK_AKFURNITURE_D2_CH_SEA
 10
0.307045
 20
-0.0103934
 30
0
  0
VERTEX
  8
72_ARTEK_AKFURNITURE_D2_CH_SEA
 10
0.308939
 20
-0.00883883
 30
0
  0
VERTEX
  8
72_ARTEK_AKFURNITURE_D2_CH_SEA
 10
0.310493
 20
-0.00694463
 30
0
  0
VERTEX
  8
72_ARTEK_AKFURNITURE_D2_CH_SEA
 10
0.311648
 20
-0.00478354
 30
0
  0
VERTEX
  8
72_ARTEK_AKFURNITURE_D2_CH_SEA
 10
0.31236
 20
-0.00243863
 30
0
  0
VERTEX
  8
72_ARTEK_AKFURNITURE_D2_CH_SEA
 10
0.3126
 20
-0
 30
0
  0
SEQEND
  0
POLYLINE
  8
72_ARTEK_AKFURNITURE_D2_CH_SEA
 66
     1
 70
     0
 10
0.0
 20
0.0
 30
0.0
  0
VERTEX
  8
72_ARTEK_AKFURNITURE_D2_CH_SEA
 10
0.282422
 20
-0.0176777
 30
0
  0
VERTEX
  8
72_ARTEK_AKFURNITURE_D2_CH_SEA
 10
0.317778
 20
0.0176777
 30
0
  0
SEQEND
  0
POLYLINE
  8
72_ARTEK_AKFURNITURE_D2_CH_SEA
 66
     1
 70
     0
 10
0.0
 20
0.0
 30
0.0
  0
VERTEX
  8
72_ARTEK_AKFURNITURE_D2_CH_SEA
 10
0.282422
 20
0.0176777
 30
0
  0
VERTEX
  8
72_ARTEK_AKFURNITURE_D2_CH_SEA
 10
0.317778
 20
-0.0176777
 30
0
  0
SEQEND
  0
POLYLINE
  8
72_ARTEK_AKFURNITURE_D2SNAP
 66
     1
 70
     0
 10
0.0
 20
0.0
 30
0.0
  0
VERTEX
  8
72_ARTEK_AKFURNITURE_D2SNAP
 10
0.3126
 20
-0
 30
0
  0
VERTEX
  8
72_ARTEK_AKFURNITURE_D2SNAP
 10
0.31236
 20
0.00243863
 30
0
  0
VERTEX
  8
72_ARTEK_AKFURNITURE_D2SNAP
 10
0.311648
 20
0.00478354
 30
0
  0
VERTEX
  8
72_ARTEK_AKFURNITURE_D2SNAP
 10
0.310493
 20
0.00694463
 30
0
  0
VERTEX
  8
72_ARTEK_AKFURNITURE_D2SNAP
 10
0.308939
 20
0.00883883
 30
0
  0
VERTEX
  8
72_ARTEK_AKFURNITURE_D2SNAP
 10
0.307045
 20
0.0103934
 30
0
  0
VERTEX
  8
72_ARTEK_AKFURNITURE_D2SNAP
 10
0.304884
 20
0.0115485
 30
0
  0
VERTEX
  8
72_ARTEK_AKFURNITURE_D2SNAP
 10
0.302539
 20
0.0122598
 30
0
  0
VERTEX
  8
72_ARTEK_AKFURNITURE_D2SNAP
 10
0.3001
 20
0.0125
 30
0
  0
VERTEX
  8
72_ARTEK_AKFURNITURE_D2SNAP
 10
0.297661
 20
0.0122598
 30
0
  0
VERTEX
  8
72_ARTEK_AKFURNITURE_D2SNAP
 10
0.295316
 20
0.0115485
 30
0
  0
VERTEX
  8
72_ARTEK_AKFURNITURE_D2SNAP
 10
0.293155
 20
0.0103934
 30
0
  0
VERTEX
  8
72_ARTEK_AKFURNITURE_D2SNAP
 10
0.291261
 20
0.00883883
 30
0
  0
VERTEX
  8
72_ARTEK_AKFURNITURE_D2SNAP
 10
0.289707
 20
0.00694463
 30
0
  0
VERTEX
  8
72_ARTEK_AKFURNITURE_D2SNAP
 10
0.288552
 20
0.00478354
 30
0
  0
VERTEX
  8
72_ARTEK_AKFURNITURE_D2SNAP
 10
0.28784
 20
0.00243863
 30
0
  0
VERTEX
  8
72_ARTEK_AKFURNITURE_D2SNAP
 10
0.2876
 20
3.15316e-018
 30
0
  0
VERTEX
  8
72_ARTEK_AKFURNITURE_D2SNAP
 10
0.28784
 20
-0.00243863
 30
0
  0
VERTEX
  8
72_ARTEK_AKFURNITURE_D2SNAP
 10
0.288552
 20
-0.00478354
 30
0
  0
VERTEX
  8
72_ARTEK_AKFURNITURE_D2SNAP
 10
0.289707
 20
-0.00694463
 30
0
  0
VERTEX
  8
72_ARTEK_AKFURNITURE_D2SNAP
 10
0.291261
 20
-0.00883883
 30
0
  0
VERTEX
  8
72_ARTEK_AKFURNITURE_D2SNAP
 10
0.293155
 20
-0.0103934
 30
0
  0
VERTEX
  8
72_ARTEK_AKFURNITURE_D2SNAP
 10
0.295316
 20
-0.0115485
 30
0
  0
VERTEX
  8
72_ARTEK_AKFURNITURE_D2SNAP
 10
0.297661
 20
-0.0122598
 30
0
  0
VERTEX
  8
72_ARTEK_AKFURNITURE_D2SNAP
 10
0.3001
 20
-0.0125
 30
0
  0
VERTEX
  8
72_ARTEK_AKFURNITURE_D2SNAP
 10
0.302539
 20
-0.0122598
 30
0
  0
VERTEX
  8
72_ARTEK_AKFURNITURE_D2SNAP
 10
0.304884
 20
-0.0115485
 30
0
  0
VERTEX
  8
72_ARTEK_AKFURNITURE_D2SNAP
 10
0.307045
 20
-0.0103934
 30
0
  0
VERTEX
  8
72_ARTEK_AKFURNITURE_D2SNAP
 10
0.308939
 20
-0.00883883
 30
0
  0
VERTEX
  8
72_ARTEK_AKFURNITURE_D2SNAP
 10
0.310493
 20
-0.00694463
 30
0
  0
VERTEX
  8
72_ARTEK_AKFURNITURE_D2SNAP
 10
0.311648
 20
-0.00478354
 30
0
  0
VERTEX
  8
72_ARTEK_AKFURNITURE_D2SNAP
 10
0.31236
 20
-0.00243863
 30
0
  0
VERTEX
  8
72_ARTEK_AKFURNITURE_D2SNAP
 10
0.3126
 20
-0
 30
0
  0
SEQEND
  0
POLYLINE
  8
72_ARTEK_AKFURNITURE_D2SNAP
 66
     1
 70
     0
 10
0.0
 20
0.0
 30
0.0
  0
VERTEX
  8
72_ARTEK_AKFURNITURE_D2SNAP
 10
0.282422
 20
-0.0176777
 30
0
  0
VERTEX
  8
72_ARTEK_AKFURNITURE_D2SNAP
 10
0.317778
 20
0.0176777
 30
0
  0
SEQEND
  0
POLYLINE
  8
72_ARTEK_AKFURNITURE_D2SNAP
 66
     1
 70
     0
 10
0.0
 20
0.0
 30
0.0
  0
VERTEX
  8
72_ARTEK_AKFURNITURE_D2SNAP
 10
0.282422
 20
0.0176777
 30
0
  0
VERTEX
  8
72_ARTEK_AKFURNITURE_D2SNAP
 10
0.317778
 20
-0.0176777
 30
0
  0
SEQEND
  0
ENDBLK
  8
0
  0
BLOCK
  8
0
  2
OB2D__000001
 70
    64
 10
0.0
 20
0.0
 30
0.0
  3
OB2D__000001
  0
ENDBLK
  8
0
  0
ENDSEC
  0
SECTION
  2
ENTITIES
  0
INSERT
  8
72OFGO2D01_GRAFIK
  2
OB2D__000000
 10
0.0
 20
0.0
 30
0.0
  0
INSERT
  8
72OFGO2D01_GRAFIK
  2
OB2D__000001
 10
0.0
 20
0.0
 30
0.0
  0
ENDSEC
  0
EOF
