  0
SECTION
  2
HEADER
  9
$ACADVER
  1
AC1009
  9
$INSBASE
 10
0.0
 20
0.0
 30
0.0
  9
$EXTMIN
 10
-5.03
 20
-5.03
 30
-1.03
  9
$EXTMAX
 10
5.03
 20
5
 30
5.03
  0
ENDSEC
  0
SECTION
  2
TABLES
  0
TABLE
  2
LTYPE
 70
     2
  0
LTYPE
  2
CONTINUOUS
 70
    64
  3
________
 72
    65
 73
     0
 40
0.0
  0
LTYPE
  2
DASHED
 70
     0
  3
__ __ __
 72
    65
 73
     2
 40
0.75
 49
0.5
 49
-0.25
  0
LTYPE
  2
DOT
 70
     0
  3
. . . .
 72
    65
 73
     2
 40
0.25
 49
0.0
 49
-0.25
  0
LTYPE
  2
DASHDOT
 70
     0
  3
_ . _ .
 72
    65
 73
     4
 40
1.0
 49
0.5
 49
-0.25
 49
-0.0
 49
-0.25
  0
LTYPE
  2
DASHDOUBLEDOT
 70
     0
  3
__..__..
 72
    65
 73
     6
 40
1.25
 49
0.5
 49
-0.25
 49
-0.0
 49
-0.25
 49
-0.0
 49
-0.25
  0
LTYPE
  2
DASHTRIPLEDOT
 70
     0
  3
__...__...__
 72
    65
 73
     8
 40
1.5
 49
0.5
 49
-0.25
 49
-0.0
 49
-0.25
 49
-0.0
 49
-0.25
 49
-0.0
 49
-0.25
  0
ENDTAB
  0
TABLE
  2
LAYER
 70
    14
  0
LAYER
  2
0
 70
    64
 62
     7
  6
CONTINUOUS
  0
LAYER
  2
CEILING
 70
    64
 62
     7
  6
CONTINUOUS
  0
LAYER
  2
FLOORBLOCK
 70
    64
 62
     7
  6
CONTINUOUS
  0
LAYER
  2
FLOORHATCHING
 70
    64
 62
     7
  6
CONTINUOUS
  0
LAYER
  2
SNAP
 70
    64
 62
     7
  6
CONTINUOUS
  0
LAYER
  2
ATTACHPOINT
 70
    64
 62
     7
  6
CONTINUOUS
  0
LAYER
  2
72_ARTEK_AKFURNITURE_D2_CH_FRA
 70
    64
 62
18
  6
CONTINUOUS
  0
LAYER
  2
72_ARTEK_AKFURNITURE_D2SNAP
 70
    64
 62
1
  6
CONTINUOUS
  0
LAYER
  2
72_ARTEK_AKFURNITURE_D2_CH_SEA
 70
    64
 62
18
  6
CONTINUOUS
  0
LAYER
  2
72_ARTEK_AKFURNITURE_D2_CH_ARM
 70
    64
 62
18
  6
CONTINUOUS
  0
LAYER
  2
72_ARTEK_AKFURNITURE_D2_CH_BAC
 70
    64
 62
18
  6
CONTINUOUS
  0
LAYER
  2
72_ARTEK_AKFURNITURE_D2_CH_FOO
 70
    64
 62
18
  6
CONTINUOUS
  0
LAYER
  2
72_ARTEK_AKFURNITURE_D2_CH_000
 70
    64
 62
8
  6
CONTINUOUS
  0
LAYER
  2
72OFGO2D01_GRAFIK
 70
    64
 62
     1
  6
CONTINUOUS
  0
ENDTAB
  0
TABLE
  2
STYLE
 70
     1
  0
STYLE
  2
STANDARD
 70
     0
 40
0.0
 41
1.0
 50
0.0
 71
     0
 42
0.2
  3
txt
  4

  0
ENDTAB
  0
TABLE
  2
APPID
 70
    64
  0
APPID
  2
ACAD
 70
    64
  0
APPID
  2
OFML_10
 70
    64
  0
ENDTAB
  0
ENDSEC
  0
SECTION
  2
BLOCKS
  0
BLOCK
  8
0
  2
OB2D__000000
 70
    64
 10
0.0
 20
0.0
 30
0.0
  3
OB2D__000000
  0
POLYLINE
  8
72_ARTEK_AKFURNITURE_D2_CH_ARM
 66
     1
 70
     0
 10
0.0
 20
0.0
 30
0.0
  0
VERTEX
  8
72_ARTEK_AKFURNITURE_D2_CH_ARM
 10
0.00214479
 20
0.117713
 30
0
  0
VERTEX
  8
72_ARTEK_AKFURNITURE_D2_CH_ARM
 10
0.00319093
 20
0.123242
 30
0
  0
VERTEX
  8
72_ARTEK_AKFURNITURE_D2_CH_ARM
 10
0.00416713
 20
0.127675
 30
0
  0
VERTEX
  8
72_ARTEK_AKFURNITURE_D2_CH_ARM
 10
0.00507342
 20
0.131015
 30
0
  0
VERTEX
  8
72_ARTEK_AKFURNITURE_D2_CH_ARM
 10
0.00591335
 20
0.133316
 30
0
  0
VERTEX
  8
72_ARTEK_AKFURNITURE_D2_CH_ARM
 10
0.00920844
 20
0.141509
 30
0
  0
VERTEX
  8
72_ARTEK_AKFURNITURE_D2_CH_ARM
 10
0.0128298
 20
0.149432
 30
0
  0
VERTEX
  8
72_ARTEK_AKFURNITURE_D2_CH_ARM
 10
0.0174736
 20
0.156506
 30
0
  0
VERTEX
  8
72_ARTEK_AKFURNITURE_D2_CH_ARM
 10
0.0225229
 20
0.163243
 30
0
  0
VERTEX
  8
72_ARTEK_AKFURNITURE_D2_CH_ARM
 10
0.0251586
 20
0.166586
 30
0
  0
VERTEX
  8
72_ARTEK_AKFURNITURE_D2_CH_ARM
 10
0.0283906
 20
0.169794
 30
0
  0
VERTEX
  8
72_ARTEK_AKFURNITURE_D2_CH_ARM
 10
0.0359921
 20
0.175954
 30
0
  0
VERTEX
  8
72_ARTEK_AKFURNITURE_D2_CH_ARM
 10
0.0401803
 20
0.179221
 30
0
  0
VERTEX
  8
72_ARTEK_AKFURNITURE_D2_CH_ARM
 10
0.0452714
 20
0.182939
 30
0
  0
VERTEX
  8
72_ARTEK_AKFURNITURE_D2_CH_ARM
 10
0.0498638
 20
0.18591
 30
0
  0
VERTEX
  8
72_ARTEK_AKFURNITURE_D2_CH_ARM
 10
0.0538783
 20
0.188101
 30
0
  0
VERTEX
  8
72_ARTEK_AKFURNITURE_D2_CH_ARM
 10
0.0579255
 20
0.190116
 30
0
  0
VERTEX
  8
72_ARTEK_AKFURNITURE_D2_CH_ARM
 10
0.0614923
 20
0.191774
 30
0
  0
VERTEX
  8
72_ARTEK_AKFURNITURE_D2_CH_ARM
 10
0.0644013
 20
0.19304
 30
0
  0
VERTEX
  8
72_ARTEK_AKFURNITURE_D2_CH_ARM
 10
0.0666258
 20
0.193967
 30
0
  0
VERTEX
  8
72_ARTEK_AKFURNITURE_D2_CH_ARM
 10
0.0697021
 20
0.195188
 30
0
  0
VERTEX
  8
72_ARTEK_AKFURNITURE_D2_CH_ARM
 10
0.0724791
 20
0.196247
 30
0
  0
VERTEX
  8
72_ARTEK_AKFURNITURE_D2_CH_ARM
 10
0.0736581
 20
0.1967
 30
0
  0
VERTEX
  8
72_ARTEK_AKFURNITURE_D2_CH_ARM
 10
0.0744814
 20
0.197023
 30
0
  0
VERTEX
  8
72_ARTEK_AKFURNITURE_D2_CH_ARM
 10
0.0746327
 20
0.19705
 30
0
  0
VERTEX
  8
72_ARTEK_AKFURNITURE_D2_CH_ARM
 10
0.0744402
 20
0.196853
 30
0
  0
VERTEX
  8
72_ARTEK_AKFURNITURE_D2_CH_ARM
 10
0.0740687
 20
0.196473
 30
0
  0
VERTEX
  8
72_ARTEK_AKFURNITURE_D2_CH_ARM
 10
0.0733798
 20
0.195766
 30
0
  0
VERTEX
  8
72_ARTEK_AKFURNITURE_D2_CH_ARM
 10
0.0711575
 20
0.193439
 30
0
  0
VERTEX
  8
72_ARTEK_AKFURNITURE_D2_CH_ARM
 10
0.0670001
 20
0.188756
 30
0
  0
VERTEX
  8
72_ARTEK_AKFURNITURE_D2_CH_ARM
 10
0.0664658
 20
0.188097
 30
0
  0
VERTEX
  8
72_ARTEK_AKFURNITURE_D2_CH_ARM
 10
0.065707
 20
0.187117
 30
0
  0
VERTEX
  8
72_ARTEK_AKFURNITURE_D2_CH_ARM
 10
0.0638738
 20
0.184579
 30
0
  0
VERTEX
  8
72_ARTEK_AKFURNITURE_D2_CH_ARM
 10
0.0622219
 20
0.18192
 30
0
  0
VERTEX
  8
72_ARTEK_AKFURNITURE_D2_CH_ARM
 10
0.0606389
 20
0.178726
 30
0
  0
VERTEX
  8
72_ARTEK_AKFURNITURE_D2_CH_ARM
 10
0.0596457
 20
0.176115
 30
0
  0
VERTEX
  8
72_ARTEK_AKFURNITURE_D2_CH_ARM
 10
0.0589587
 20
0.173122
 30
0
  0
VERTEX
  8
72_ARTEK_AKFURNITURE_D2_CH_ARM
 10
0.058786
 20
0.171087
 30
0
  0
VERTEX
  8
72_ARTEK_AKFURNITURE_D2_CH_ARM
 10
0.0587885
 20
0.168357
 30
0
  0
VERTEX
  8
72_ARTEK_AKFURNITURE_D2_CH_ARM
 10
0.0589864
 20
0.164711
 30
0
  0
VERTEX
  8
72_ARTEK_AKFURNITURE_D2_CH_ARM
 10
0.0592295
 20
0.161701
 30
0
  0
VERTEX
  8
72_ARTEK_AKFURNITURE_D2_CH_ARM
 10
0.0597217
 20
0.158134
 30
0
  0
VERTEX
  8
72_ARTEK_AKFURNITURE_D2_CH_ARM
 10
0.0599983
 20
0.156438
 30
0
  0
VERTEX
  8
72_ARTEK_AKFURNITURE_D2_CH_ARM
 10
0.0601647
 20
0.155481
 30
0
  0
VERTEX
  8
72_ARTEK_AKFURNITURE_D2_CH_ARM
 10
0.0602926
 20
0.154875
 30
0
  0
VERTEX
  8
72_ARTEK_AKFURNITURE_D2_CH_ARM
 10
0.0605183
 20
0.153874
 30
0
  0
VERTEX
  8
72_ARTEK_AKFURNITURE_D2_CH_ARM
 10
0.0610722
 20
0.151797
 30
0
  0
VERTEX
  8
72_ARTEK_AKFURNITURE_D2_CH_ARM
 10
0.0627329
 20
0.147571
 30
0
  0
VERTEX
  8
72_ARTEK_AKFURNITURE_D2_CH_ARM
 10
0.0635255
 20
0.146045
 30
0
  0
VERTEX
  8
72_ARTEK_AKFURNITURE_D2_CH_ARM
 10
0.0640356
 20
0.145082
 30
0
  0
VERTEX
  8
72_ARTEK_AKFURNITURE_D2_CH_ARM
 10
0.0649026
 20
0.143472
 30
0
  0
VERTEX
  8
72_ARTEK_AKFURNITURE_D2_CH_ARM
 10
0.0659017
 20
0.141668
 30
0
  0
VERTEX
  8
72_ARTEK_AKFURNITURE_D2_CH_ARM
 10
0.0667067
 20
0.140232
 30
0
  0
VERTEX
  8
72_ARTEK_AKFURNITURE_D2_CH_ARM
 10
0.0675385
 20
0.13861
 30
0
  0
VERTEX
  8
72_ARTEK_AKFURNITURE_D2_CH_ARM
 10
0.0680146
 20
0.136321
 30
0
  0
VERTEX
  8
72_ARTEK_AKFURNITURE_D2_CH_ARM
 10
0.0680117
 20
0.13557
 30
0
  0
VERTEX
  8
72_ARTEK_AKFURNITURE_D2_CH_ARM
 10
0.0679964
 20
0.135202
 30
0
  0
VERTEX
  8
72_ARTEK_AKFURNITURE_D2_CH_ARM
 10
0.0679534
 20
0.134461
 30
0
  0
VERTEX
  8
72_ARTEK_AKFURNITURE_D2_CH_ARM
 10
0.0678654
 20
0.133048
 30
0
  0
VERTEX
  8
72_ARTEK_AKFURNITURE_D2_CH_ARM
 10
0.0677342
 20
0.130576
 30
0
  0
VERTEX
  8
72_ARTEK_AKFURNITURE_D2_CH_ARM
 10
0.0675565
 20
0.126838
 30
0
  0
VERTEX
  8
72_ARTEK_AKFURNITURE_D2_CH_ARM
 10
0.0674417
 20
0.12436
 30
0
  0
VERTEX
  8
72_ARTEK_AKFURNITURE_D2_CH_ARM
 10
0.0673079
 20
0.121453
 30
0
  0
VERTEX
  8
72_ARTEK_AKFURNITURE_D2_CH_ARM
 10
0.0669717
 20
0.114467
 30
0
  0
VERTEX
  8
72_ARTEK_AKFURNITURE_D2_CH_ARM
 10
0.0665116
 20
0.10623
 30
0
  0
VERTEX
  8
72_ARTEK_AKFURNITURE_D2_CH_ARM
 10
0.0659988
 20
0.0978292
 30
0
  0
VERTEX
  8
72_ARTEK_AKFURNITURE_D2_CH_ARM
 10
0.0655402
 20
0.0908087
 30
0
  0
VERTEX
  8
72_ARTEK_AKFURNITURE_D2_CH_ARM
 10
0.0653546
 20
0.0880372
 30
0
  0
VERTEX
  8
72_ARTEK_AKFURNITURE_D2_CH_ARM
 10
0.065215
 20
0.0859181
 30
0
  0
VERTEX
  8
72_ARTEK_AKFURNITURE_D2_CH_ARM
 10
0.0651214
 20
0.0844512
 30
0
  0
VERTEX
  8
72_ARTEK_AKFURNITURE_D2_CH_ARM
 10
0.0650643
 20
0.0834961
 30
0
  0
VERTEX
  8
72_ARTEK_AKFURNITURE_D2_CH_ARM
 10
0.0648626
 20
0.0798203
 30
0
  0
VERTEX
  8
72_ARTEK_AKFURNITURE_D2_CH_ARM
 10
0.0647692
 20
0.077977
 30
0
  0
VERTEX
  8
72_ARTEK_AKFURNITURE_D2_CH_ARM
 10
0.0646587
 20
0.075689
 30
0
  0
VERTEX
  8
72_ARTEK_AKFURNITURE_D2_CH_ARM
 10
0.0645778
 20
0.0739839
 30
0
  0
VERTEX
  8
72_ARTEK_AKFURNITURE_D2_CH_ARM
 10
0.0644791
 20
0.0718891
 30
0
  0
VERTEX
  8
72_ARTEK_AKFURNITURE_D2_CH_ARM
 10
0.0642797
 20
0.0677395
 30
0
  0
VERTEX
  8
72_ARTEK_AKFURNITURE_D2_CH_ARM
 10
0.0639343
 20
0.0614587
 30
0
  0
VERTEX
  8
72_ARTEK_AKFURNITURE_D2_CH_ARM
 10
0.0638227
 20
0.0596953
 30
0
  0
VERTEX
  8
72_ARTEK_AKFURNITURE_D2_CH_ARM
 10
0.0636466
 20
0.0573684
 30
0
  0
VERTEX
  8
72_ARTEK_AKFURNITURE_D2_CH_ARM
 10
0.0634929
 20
0.0556418
 30
0
  0
VERTEX
  8
72_ARTEK_AKFURNITURE_D2_CH_ARM
 10
0.0632942
 20
0.0535287
 30
0
  0
VERTEX
  8
72_ARTEK_AKFURNITURE_D2_CH_ARM
 10
0.0630504
 20
0.0510291
 30
0
  0
VERTEX
  8
72_ARTEK_AKFURNITURE_D2_CH_ARM
 10
0.0627616
 20
0.0481428
 30
0
  0
VERTEX
  8
72_ARTEK_AKFURNITURE_D2_CH_ARM
 10
0.0619949
 20
0.0413423
 30
0
  0
VERTEX
  8
72_ARTEK_AKFURNITURE_D2_CH_ARM
 10
0.0615661
 20
0.0386191
 30
0
  0
VERTEX
  8
72_ARTEK_AKFURNITURE_D2_CH_ARM
 10
0.0612368
 20
0.0367243
 30
0
  0
VERTEX
  8
72_ARTEK_AKFURNITURE_D2_CH_ARM
 10
0.0596979
 20
0.0294812
 30
0
  0
VERTEX
  8
72_ARTEK_AKFURNITURE_D2_CH_ARM
 10
0.0587529
 20
0.0259011
 30
0
  0
VERTEX
  8
72_ARTEK_AKFURNITURE_D2_CH_ARM
 10
0.0581871
 20
0.0240873
 30
0
  0
VERTEX
  8
72_ARTEK_AKFURNITURE_D2_CH_ARM
 10
0.0572784
 20
0.0220386
 30
0
  0
VERTEX
  8
72_ARTEK_AKFURNITURE_D2_CH_ARM
 10
0.0548289
 20
0.0179822
 30
0
  0
VERTEX
  8
72_ARTEK_AKFURNITURE_D2_CH_ARM
 10
0.0537076
 20
0.0165228
 30
0
  0
VERTEX
  8
72_ARTEK_AKFURNITURE_D2_CH_ARM
 10
0.0529056
 20
0.0156452
 30
0
  0
VERTEX
  8
72_ARTEK_AKFURNITURE_D2_CH_ARM
 10
0.0499492
 20
0.0132391
 30
0
  0
VERTEX
  8
72_ARTEK_AKFURNITURE_D2_CH_ARM
 10
0.0466666
 20
0.0113595
 30
0
  0
VERTEX
  8
72_ARTEK_AKFURNITURE_D2_CH_ARM
 10
0.0431457
 20
0.0100342
 30
0
  0
VERTEX
  8
72_ARTEK_AKFURNITURE_D2_CH_ARM
 10
0.0421156
 20
0.00977746
 30
0
  0
VERTEX
  8
72_ARTEK_AKFURNITURE_D2_CH_ARM
 10
0.0405819
 20
0.00949598
 30
0
  0
VERTEX
  8
72_ARTEK_AKFURNITURE_D2_CH_ARM
 10
0.0389454
 20
0.00925567
 30
0
  0
VERTEX
  8
72_ARTEK_AKFURNITURE_D2_CH_ARM
 10
0.0378136
 20
0.00915473
 30
0
  0
VERTEX
  8
72_ARTEK_AKFURNITURE_D2_CH_ARM
 10
0.0340806
 20
0.0093022
 30
0
  0
VERTEX
  8
72_ARTEK_AKFURNITURE_D2_CH_ARM
 10
0.0322329
 20
0.00961806
 30
0
  0
VERTEX
  8
72_ARTEK_AKFURNITURE_D2_CH_ARM
 10
0.0301701
 20
0.0102091
 30
0
  0
VERTEX
  8
72_ARTEK_AKFURNITURE_D2_CH_ARM
 10
0.0271644
 20
0.0114485
 30
0
  0
VERTEX
  8
72_ARTEK_AKFURNITURE_D2_CH_ARM
 10
0.025403
 20
0.0124586
 30
0
  0
VERTEX
  8
72_ARTEK_AKFURNITURE_D2_CH_ARM
 10
0.0219329
 20
0.0151828
 30
0
  0
VERTEX
  8
72_ARTEK_AKFURNITURE_D2_CH_ARM
 10
0.0201483
 20
0.0168832
 30
0
  0
VERTEX
  8
72_ARTEK_AKFURNITURE_D2_CH_ARM
 10
0.0189735
 20
0.0181568
 30
0
  0
VERTEX
  8
72_ARTEK_AKFURNITURE_D2_CH_ARM
 10
0.0175249
 20
0.0198206
 30
0
  0
VERTEX
  8
72_ARTEK_AKFURNITURE_D2_CH_ARM
 10
0.016456
 20
0.0211207
 30
0
  0
VERTEX
  8
72_ARTEK_AKFURNITURE_D2_CH_ARM
 10
0.0157428
 20
0.0220766
 30
0
  0
VERTEX
  8
72_ARTEK_AKFURNITURE_D2_CH_ARM
 10
0.0144253
 20
0.0239974
 30
0
  0
VERTEX
  8
72_ARTEK_AKFURNITURE_D2_CH_ARM
 10
0.012079
 20
0.0279976
 30
0
  0
VERTEX
  8
72_ARTEK_AKFURNITURE_D2_CH_ARM
 10
0.0110365
 20
0.0300699
 30
0
  0
VERTEX
  8
72_ARTEK_AKFURNITURE_D2_CH_ARM
 10
0.0104612
 20
0.031332
 30
0
  0
VERTEX
  8
72_ARTEK_AKFURNITURE_D2_CH_ARM
 10
0.00966505
 20
0.033203
 30
0
  0
VERTEX
  8
72_ARTEK_AKFURNITURE_D2_CH_ARM
 10
0.00891764
 20
0.0350328
 30
0
  0
VERTEX
  8
72_ARTEK_AKFURNITURE_D2_CH_ARM
 10
0.00843016
 20
0.0363154
 30
0
  0
VERTEX
  8
72_ARTEK_AKFURNITURE_D2_CH_ARM
 10
0.00788043
 20
0.0379066
 30
0
  0
VERTEX
  8
72_ARTEK_AKFURNITURE_D2_CH_ARM
 10
0.00715013
 20
0.0401429
 30
0
  0
VERTEX
  8
72_ARTEK_AKFURNITURE_D2_CH_ARM
 10
0.00628314
 20
0.0430506
 30
0
  0
VERTEX
  8
72_ARTEK_AKFURNITURE_D2_CH_ARM
 10
0.00528843
 20
0.0466549
 30
0
  0
VERTEX
  8
72_ARTEK_AKFURNITURE_D2_CH_ARM
 10
0.0041694
 20
0.0510155
 30
0
  0
VERTEX
  8
72_ARTEK_AKFURNITURE_D2_CH_ARM
 10
0.00356569
 20
0.0536436
 30
0
  0
VERTEX
  8
72_ARTEK_AKFURNITURE_D2_CH_ARM
 10
0.00293759
 20
0.0569181
 30
0
  0
VERTEX
  8
72_ARTEK_AKFURNITURE_D2_CH_ARM
 10
0.00228517
 20
0.0608452
 30
0
  0
VERTEX
  8
72_ARTEK_AKFURNITURE_D2_CH_ARM
 10
0.0016143
 20
0.0654174
 30
0
  0
VERTEX
  8
72_ARTEK_AKFURNITURE_D2_CH_ARM
 10
0.00103343
 20
0.0704983
 30
0
  0
VERTEX
  8
72_ARTEK_AKFURNITURE_D2_CH_ARM
 10
0.000583359
 20
0.0760365
 30
0
  0
VERTEX
  8
72_ARTEK_AKFURNITURE_D2_CH_ARM
 10
5.95157e-005
 20
0.0879759
 30
0
  0
VERTEX
  8
72_ARTEK_AKFURNITURE_D2_CH_ARM
 10
-1.62277e-005
 20
0.090406
 30
0
  0
VERTEX
  8
72_ARTEK_AKFURNITURE_D2_CH_ARM
 10
-7.51653e-005
 20
0.0924468
 30
0
  0
VERTEX
  8
72_ARTEK_AKFURNITURE_D2_CH_ARM
 10
-0.000117297
 20
0.0940984
 30
0
  0
VERTEX
  8
72_ARTEK_AKFURNITURE_D2_CH_ARM
 10
-0.000142623
 20
0.0953607
 30
0
  0
VERTEX
  8
72_ARTEK_AKFURNITURE_D2_CH_ARM
 10
-6.01355e-005
 20
0.0981169
 30
0
  0
VERTEX
  8
72_ARTEK_AKFURNITURE_D2_CH_ARM
 10
0.000113469
 20
0.100364
 30
0
  0
VERTEX
  8
72_ARTEK_AKFURNITURE_D2_CH_ARM
 10
0.000378215
 20
0.103487
 30
0
  0
VERTEX
  8
72_ARTEK_AKFURNITURE_D2_CH_ARM
 10
0.00114134
 20
0.110987
 30
0
  0
VERTEX
  8
72_ARTEK_AKFURNITURE_D2_CH_ARM
 10
0.00214479
 20
0.117713
 30
0
  0
SEQEND
  0
POLYLINE
  8
72_ARTEK_AKFURNITURE_D2_CH_ARM
 66
     1
 70
     0
 10
0.0
 20
0.0
 30
0.0
  0
VERTEX
  8
72_ARTEK_AKFURNITURE_D2_CH_ARM
 10
0.576055
 20
0.117713
 30
0
  0
VERTEX
  8
72_ARTEK_AKFURNITURE_D2_CH_ARM
 10
0.575009
 20
0.123242
 30
0
  0
VERTEX
  8
72_ARTEK_AKFURNITURE_D2_CH_ARM
 10
0.574033
 20
0.127675
 30
0
  0
VERTEX
  8
72_ARTEK_AKFURNITURE_D2_CH_ARM
 10
0.573126
 20
0.131015
 30
0
  0
VERTEX
  8
72_ARTEK_AKFURNITURE_D2_CH_ARM
 10
0.572287
 20
0.133316
 30
0
  0
VERTEX
  8
72_ARTEK_AKFURNITURE_D2_CH_ARM
 10
0.568991
 20
0.141509
 30
0
  0
VERTEX
  8
72_ARTEK_AKFURNITURE_D2_CH_ARM
 10
0.56537
 20
0.149432
 30
0
  0
VERTEX
  8
72_ARTEK_AKFURNITURE_D2_CH_ARM
 10
0.560726
 20
0.156506
 30
0
  0
VERTEX
  8
72_ARTEK_AKFURNITURE_D2_CH_ARM
 10
0.555677
 20
0.163243
 30
0
  0
VERTEX
  8
72_ARTEK_AKFURNITURE_D2_CH_ARM
 10
0.553041
 20
0.166586
 30
0
  0
VERTEX
  8
72_ARTEK_AKFURNITURE_D2_CH_ARM
 10
0.549809
 20
0.169794
 30
0
  0
VERTEX
  8
72_ARTEK_AKFURNITURE_D2_CH_ARM
 10
0.542208
 20
0.175954
 30
0
  0
VERTEX
  8
72_ARTEK_AKFURNITURE_D2_CH_ARM
 10
0.53802
 20
0.179221
 30
0
  0
VERTEX
  8
72_ARTEK_AKFURNITURE_D2_CH_ARM
 10
0.532929
 20
0.182939
 30
0
  0
VERTEX
  8
72_ARTEK_AKFURNITURE_D2_CH_ARM
 10
0.528336
 20
0.18591
 30
0
  0
VERTEX
  8
72_ARTEK_AKFURNITURE_D2_CH_ARM
 10
0.524322
 20
0.188101
 30
0
  0
VERTEX
  8
72_ARTEK_AKFURNITURE_D2_CH_ARM
 10
0.520274
 20
0.190116
 30
0
  0
VERTEX
  8
72_ARTEK_AKFURNITURE_D2_CH_ARM
 10
0.516708
 20
0.191774
 30
0
  0
VERTEX
  8
72_ARTEK_AKFURNITURE_D2_CH_ARM
 10
0.513799
 20
0.19304
 30
0
  0
VERTEX
  8
72_ARTEK_AKFURNITURE_D2_CH_ARM
 10
0.511574
 20
0.193967
 30
0
  0
VERTEX
  8
72_ARTEK_AKFURNITURE_D2_CH_ARM
 10
0.508498
 20
0.195188
 30
0
  0
VERTEX
  8
72_ARTEK_AKFURNITURE_D2_CH_ARM
 10
0.505721
 20
0.196247
 30
0
  0
VERTEX
  8
72_ARTEK_AKFURNITURE_D2_CH_ARM
 10
0.504542
 20
0.1967
 30
0
  0
VERTEX
  8
72_ARTEK_AKFURNITURE_D2_CH_ARM
 10
0.503719
 20
0.197023
 30
0
  0
VERTEX
  8
72_ARTEK_AKFURNITURE_D2_CH_ARM
 10
0.503567
 20
0.19705
 30
0
  0
VERTEX
  8
72_ARTEK_AKFURNITURE_D2_CH_ARM
 10
0.50376
 20
0.196853
 30
0
  0
VERTEX
  8
72_ARTEK_AKFURNITURE_D2_CH_ARM
 10
0.504131
 20
0.196473
 30
0
  0
VERTEX
  8
72_ARTEK_AKFURNITURE_D2_CH_ARM
 10
0.50482
 20
0.195766
 30
0
  0
VERTEX
  8
72_ARTEK_AKFURNITURE_D2_CH_ARM
 10
0.507042
 20
0.193439
 30
0
  0
VERTEX
  8
72_ARTEK_AKFURNITURE_D2_CH_ARM
 10
0.5112
 20
0.188756
 30
0
  0
VERTEX
  8
72_ARTEK_AKFURNITURE_D2_CH_ARM
 10
0.511734
 20
0.188097
 30
0
  0
VERTEX
  8
72_ARTEK_AKFURNITURE_D2_CH_ARM
 10
0.512493
 20
0.187117
 30
0
  0
VERTEX
  8
72_ARTEK_AKFURNITURE_D2_CH_ARM
 10
0.514326
 20
0.184579
 30
0
  0
VERTEX
  8
72_ARTEK_AKFURNITURE_D2_CH_ARM
 10
0.515978
 20
0.18192
 30
0
  0
VERTEX
  8
72_ARTEK_AKFURNITURE_D2_CH_ARM
 10
0.517561
 20
0.178726
 30
0
  0
VERTEX
  8
72_ARTEK_AKFURNITURE_D2_CH_ARM
 10
0.518554
 20
0.176115
 30
0
  0
VERTEX
  8
72_ARTEK_AKFURNITURE_D2_CH_ARM
 10
0.519241
 20
0.173122
 30
0
  0
VERTEX
  8
72_ARTEK_AKFURNITURE_D2_CH_ARM
 10
0.519414
 20
0.171087
 30
0
  0
VERTEX
  8
72_ARTEK_AKFURNITURE_D2_CH_ARM
 10
0.519411
 20
0.168357
 30
0
  0
VERTEX
  8
72_ARTEK_AKFURNITURE_D2_CH_ARM
 10
0.519213
 20
0.164711
 30
0
  0
VERTEX
  8
72_ARTEK_AKFURNITURE_D2_CH_ARM
 10
0.51897
 20
0.161701
 30
0
  0
VERTEX
  8
72_ARTEK_AKFURNITURE_D2_CH_ARM
 10
0.518478
 20
0.158134
 30
0
  0
VERTEX
  8
72_ARTEK_AKFURNITURE_D2_CH_ARM
 10
0.518202
 20
0.156438
 30
0
  0
VERTEX
  8
72_ARTEK_AKFURNITURE_D2_CH_ARM
 10
0.518035
 20
0.155481
 30
0
  0
VERTEX
  8
72_ARTEK_AKFURNITURE_D2_CH_ARM
 10
0.517907
 20
0.154875
 30
0
  0
VERTEX
  8
72_ARTEK_AKFURNITURE_D2_CH_ARM
 10
0.517682
 20
0.153874
 30
0
  0
VERTEX
  8
72_ARTEK_AKFURNITURE_D2_CH_ARM
 10
0.517128
 20
0.151797
 30
0
  0
VERTEX
  8
72_ARTEK_AKFURNITURE_D2_CH_ARM
 10
0.515467
 20
0.147571
 30
0
  0
VERTEX
  8
72_ARTEK_AKFURNITURE_D2_CH_ARM
 10
0.514674
 20
0.146045
 30
0
  0
VERTEX
  8
72_ARTEK_AKFURNITURE_D2_CH_ARM
 10
0.514164
 20
0.145082
 30
0
  0
VERTEX
  8
72_ARTEK_AKFURNITURE_D2_CH_ARM
 10
0.513297
 20
0.143472
 30
0
  0
VERTEX
  8
72_ARTEK_AKFURNITURE_D2_CH_ARM
 10
0.512298
 20
0.141668
 30
0
  0
VERTEX
  8
72_ARTEK_AKFURNITURE_D2_CH_ARM
 10
0.511493
 20
0.140232
 30
0
  0
VERTEX
  8
72_ARTEK_AKFURNITURE_D2_CH_ARM
 10
0.510661
 20
0.13861
 30
0
  0
VERTEX
  8
72_ARTEK_AKFURNITURE_D2_CH_ARM
 10
0.510185
 20
0.136321
 30
0
  0
VERTEX
  8
72_ARTEK_AKFURNITURE_D2_CH_ARM
 10
0.510188
 20
0.13557
 30
0
  0
VERTEX
  8
72_ARTEK_AKFURNITURE_D2_CH_ARM
 10
0.510204
 20
0.135202
 30
0
  0
VERTEX
  8
72_ARTEK_AKFURNITURE_D2_CH_ARM
 10
0.510246
 20
0.134461
 30
0
  0
VERTEX
  8
72_ARTEK_AKFURNITURE_D2_CH_ARM
 10
0.510334
 20
0.133048
 30
0
  0
VERTEX
  8
72_ARTEK_AKFURNITURE_D2_CH_ARM
 10
0.510466
 20
0.130576
 30
0
  0
VERTEX
  8
72_ARTEK_AKFURNITURE_D2_CH_ARM
 10
0.510643
 20
0.126838
 30
0
  0
VERTEX
  8
72_ARTEK_AKFURNITURE_D2_CH_ARM
 10
0.510758
 20
0.12436
 30
0
  0
VERTEX
  8
72_ARTEK_AKFURNITURE_D2_CH_ARM
 10
0.510892
 20
0.121453
 30
0
  0
VERTEX
  8
72_ARTEK_AKFURNITURE_D2_CH_ARM
 10
0.511228
 20
0.114467
 30
0
  0
VERTEX
  8
72_ARTEK_AKFURNITURE_D2_CH_ARM
 10
0.511688
 20
0.10623
 30
0
  0
VERTEX
  8
72_ARTEK_AKFURNITURE_D2_CH_ARM
 10
0.512201
 20
0.0978292
 30
0
  0
VERTEX
  8
72_ARTEK_AKFURNITURE_D2_CH_ARM
 10
0.51266
 20
0.0908087
 30
0
  0
VERTEX
  8
72_ARTEK_AKFURNITURE_D2_CH_ARM
 10
0.512845
 20
0.0880372
 30
0
  0
VERTEX
  8
72_ARTEK_AKFURNITURE_D2_CH_ARM
 10
0.512985
 20
0.0859181
 30
0
  0
VERTEX
  8
72_ARTEK_AKFURNITURE_D2_CH_ARM
 10
0.513079
 20
0.0844512
 30
0
  0
VERTEX
  8
72_ARTEK_AKFURNITURE_D2_CH_ARM
 10
0.513136
 20
0.0834961
 30
0
  0
VERTEX
  8
72_ARTEK_AKFURNITURE_D2_CH_ARM
 10
0.513337
 20
0.0798203
 30
0
  0
VERTEX
  8
72_ARTEK_AKFURNITURE_D2_CH_ARM
 10
0.513431
 20
0.077977
 30
0
  0
VERTEX
  8
72_ARTEK_AKFURNITURE_D2_CH_ARM
 10
0.513541
 20
0.075689
 30
0
  0
VERTEX
  8
72_ARTEK_AKFURNITURE_D2_CH_ARM
 10
0.513622
 20
0.0739839
 30
0
  0
VERTEX
  8
72_ARTEK_AKFURNITURE_D2_CH_ARM
 10
0.513721
 20
0.0718891
 30
0
  0
VERTEX
  8
72_ARTEK_AKFURNITURE_D2_CH_ARM
 10
0.51392
 20
0.0677395
 30
0
  0
VERTEX
  8
72_ARTEK_AKFURNITURE_D2_CH_ARM
 10
0.514266
 20
0.0614587
 30
0
  0
VERTEX
  8
72_ARTEK_AKFURNITURE_D2_CH_ARM
 10
0.514377
 20
0.0596953
 30
0
  0
VERTEX
  8
72_ARTEK_AKFURNITURE_D2_CH_ARM
 10
0.514553
 20
0.0573684
 30
0
  0
VERTEX
  8
72_ARTEK_AKFURNITURE_D2_CH_ARM
 10
0.514707
 20
0.0556418
 30
0
  0
VERTEX
  8
72_ARTEK_AKFURNITURE_D2_CH_ARM
 10
0.514906
 20
0.0535287
 30
0
  0
VERTEX
  8
72_ARTEK_AKFURNITURE_D2_CH_ARM
 10
0.515149
 20
0.0510291
 30
0
  0
VERTEX
  8
72_ARTEK_AKFURNITURE_D2_CH_ARM
 10
0.515438
 20
0.0481428
 30
0
  0
VERTEX
  8
72_ARTEK_AKFURNITURE_D2_CH_ARM
 10
0.516205
 20
0.0413423
 30
0
  0
VERTEX
  8
72_ARTEK_AKFURNITURE_D2_CH_ARM
 10
0.516634
 20
0.0386191
 30
0
  0
VERTEX
  8
72_ARTEK_AKFURNITURE_D2_CH_ARM
 10
0.516963
 20
0.0367243
 30
0
  0
VERTEX
  8
72_ARTEK_AKFURNITURE_D2_CH_ARM
 10
0.518502
 20
0.0294812
 30
0
  0
VERTEX
  8
72_ARTEK_AKFURNITURE_D2_CH_ARM
 10
0.519447
 20
0.0259011
 30
0
  0
VERTEX
  8
72_ARTEK_AKFURNITURE_D2_CH_ARM
 10
0.520013
 20
0.0240873
 30
0
  0
VERTEX
  8
72_ARTEK_AKFURNITURE_D2_CH_ARM
 10
0.520922
 20
0.0220386
 30
0
  0
VERTEX
  8
72_ARTEK_AKFURNITURE_D2_CH_ARM
 10
0.523371
 20
0.0179822
 30
0
  0
VERTEX
  8
72_ARTEK_AKFURNITURE_D2_CH_ARM
 10
0.524492
 20
0.0165228
 30
0
  0
VERTEX
  8
72_ARTEK_AKFURNITURE_D2_CH_ARM
 10
0.525294
 20
0.0156452
 30
0
  0
VERTEX
  8
72_ARTEK_AKFURNITURE_D2_CH_ARM
 10
0.528251
 20
0.0132391
 30
0
  0
VERTEX
  8
72_ARTEK_AKFURNITURE_D2_CH_ARM
 10
0.531533
 20
0.0113595
 30
0
  0
VERTEX
  8
72_ARTEK_AKFURNITURE_D2_CH_ARM
 10
0.535054
 20
0.0100342
 30
0
  0
VERTEX
  8
72_ARTEK_AKFURNITURE_D2_CH_ARM
 10
0.536084
 20
0.00977746
 30
0
  0
VERTEX
  8
72_ARTEK_AKFURNITURE_D2_CH_ARM
 10
0.537618
 20
0.00949598
 30
0
  0
VERTEX
  8
72_ARTEK_AKFURNITURE_D2_CH_ARM
 10
0.539254
 20
0.00925567
 30
0
  0
VERTEX
  8
72_ARTEK_AKFURNITURE_D2_CH_ARM
 10
0.540386
 20
0.00915473
 30
0
  0
VERTEX
  8
72_ARTEK_AKFURNITURE_D2_CH_ARM
 10
0.544119
 20
0.0093022
 30
0
  0
VERTEX
  8
72_ARTEK_AKFURNITURE_D2_CH_ARM
 10
0.545967
 20
0.00961806
 30
0
  0
VERTEX
  8
72_ARTEK_AKFURNITURE_D2_CH_ARM
 10
0.54803
 20
0.0102091
 30
0
  0
VERTEX
  8
72_ARTEK_AKFURNITURE_D2_CH_ARM
 10
0.551036
 20
0.0114485
 30
0
  0
VERTEX
  8
72_ARTEK_AKFURNITURE_D2_CH_ARM
 10
0.552797
 20
0.0124586
 30
0
  0
VERTEX
  8
72_ARTEK_AKFURNITURE_D2_CH_ARM
 10
0.556267
 20
0.0151828
 30
0
  0
VERTEX
  8
72_ARTEK_AKFURNITURE_D2_CH_ARM
 10
0.558052
 20
0.0168832
 30
0
  0
VERTEX
  8
72_ARTEK_AKFURNITURE_D2_CH_ARM
 10
0.559226
 20
0.0181568
 30
0
  0
VERTEX
  8
72_ARTEK_AKFURNITURE_D2_CH_ARM
 10
0.560675
 20
0.0198206
 30
0
  0
VERTEX
  8
72_ARTEK_AKFURNITURE_D2_CH_ARM
 10
0.561744
 20
0.0211207
 30
0
  0
VERTEX
  8
72_ARTEK_AKFURNITURE_D2_CH_ARM
 10
0.562457
 20
0.0220766
 30
0
  0
VERTEX
  8
72_ARTEK_AKFURNITURE_D2_CH_ARM
 10
0.563775
 20
0.0239974
 30
0
  0
VERTEX
  8
72_ARTEK_AKFURNITURE_D2_CH_ARM
 10
0.566121
 20
0.0279976
 30
0
  0
VERTEX
  8
72_ARTEK_AKFURNITURE_D2_CH_ARM
 10
0.567163
 20
0.0300699
 30
0
  0
VERTEX
  8
72_ARTEK_AKFURNITURE_D2_CH_ARM
 10
0.567739
 20
0.031332
 30
0
  0
VERTEX
  8
72_ARTEK_AKFURNITURE_D2_CH_ARM
 10
0.568535
 20
0.033203
 30
0
  0
VERTEX
  8
72_ARTEK_AKFURNITURE_D2_CH_ARM
 10
0.569282
 20
0.0350328
 30
0
  0
VERTEX
  8
72_ARTEK_AKFURNITURE_D2_CH_ARM
 10
0.56977
 20
0.0363154
 30
0
  0
VERTEX
  8
72_ARTEK_AKFURNITURE_D2_CH_ARM
 10
0.570319
 20
0.0379066
 30
0
  0
VERTEX
  8
72_ARTEK_AKFURNITURE_D2_CH_ARM
 10
0.57105
 20
0.0401429
 30
0
  0
VERTEX
  8
72_ARTEK_AKFURNITURE_D2_CH_ARM
 10
0.571917
 20
0.0430506
 30
0
  0
VERTEX
  8
72_ARTEK_AKFURNITURE_D2_CH_ARM
 10
0.572911
 20
0.0466549
 30
0
  0
VERTEX
  8
72_ARTEK_AKFURNITURE_D2_CH_ARM
 10
0.574031
 20
0.0510155
 30
0
  0
VERTEX
  8
72_ARTEK_AKFURNITURE_D2_CH_ARM
 10
0.574634
 20
0.0536436
 30
0
  0
VERTEX
  8
72_ARTEK_AKFURNITURE_D2_CH_ARM
 10
0.575262
 20
0.0569181
 30
0
  0
VERTEX
  8
72_ARTEK_AKFURNITURE_D2_CH_ARM
 10
0.575915
 20
0.0608452
 30
0
  0
VERTEX
  8
72_ARTEK_AKFURNITURE_D2_CH_ARM
 10
0.576586
 20
0.0654174
 30
0
  0
VERTEX
  8
72_ARTEK_AKFURNITURE_D2_CH_ARM
 10
0.577166
 20
0.0704983
 30
0
  0
VERTEX
  8
72_ARTEK_AKFURNITURE_D2_CH_ARM
 10
0.577617
 20
0.0760365
 30
0
  0
VERTEX
  8
72_ARTEK_AKFURNITURE_D2_CH_ARM
 10
0.57814
 20
0.0879759
 30
0
  0
VERTEX
  8
72_ARTEK_AKFURNITURE_D2_CH_ARM
 10
0.578216
 20
0.090406
 30
0
  0
VERTEX
  8
72_ARTEK_AKFURNITURE_D2_CH_ARM
 10
0.578275
 20
0.0924468
 30
0
  0
VERTEX
  8
72_ARTEK_AKFURNITURE_D2_CH_ARM
 10
0.578317
 20
0.0940984
 30
0
  0
VERTEX
  8
72_ARTEK_AKFURNITURE_D2_CH_ARM
 10
0.578343
 20
0.0953607
 30
0
  0
VERTEX
  8
72_ARTEK_AKFURNITURE_D2_CH_ARM
 10
0.57826
 20
0.0981169
 30
0
  0
VERTEX
  8
72_ARTEK_AKFURNITURE_D2_CH_ARM
 10
0.578086
 20
0.100364
 30
0
  0
VERTEX
  8
72_ARTEK_AKFURNITURE_D2_CH_ARM
 10
0.577822
 20
0.103487
 30
0
  0
VERTEX
  8
72_ARTEK_AKFURNITURE_D2_CH_ARM
 10
0.577059
 20
0.110987
 30
0
  0
VERTEX
  8
72_ARTEK_AKFURNITURE_D2_CH_ARM
 10
0.576055
 20
0.117713
 30
0
  0
SEQEND
  0
POLYLINE
  8
72_ARTEK_AKFURNITURE_D2SNAP
 66
     1
 70
     0
 10
0.0
 20
0.0
 30
0.0
  0
VERTEX
  8
72_ARTEK_AKFURNITURE_D2SNAP
 10
0.3016
 20
-0
 30
0
  0
VERTEX
  8
72_ARTEK_AKFURNITURE_D2SNAP
 10
0.30136
 20
0.00243863
 30
0
  0
VERTEX
  8
72_ARTEK_AKFURNITURE_D2SNAP
 10
0.300648
 20
0.00478354
 30
0
  0
VERTEX
  8
72_ARTEK_AKFURNITURE_D2SNAP
 10
0.299493
 20
0.00694463
 30
0
  0
VERTEX
  8
72_ARTEK_AKFURNITURE_D2SNAP
 10
0.297939
 20
0.00883883
 30
0
  0
VERTEX
  8
72_ARTEK_AKFURNITURE_D2SNAP
 10
0.296045
 20
0.0103934
 30
0
  0
VERTEX
  8
72_ARTEK_AKFURNITURE_D2SNAP
 10
0.293884
 20
0.0115485
 30
0
  0
VERTEX
  8
72_ARTEK_AKFURNITURE_D2SNAP
 10
0.291539
 20
0.0122598
 30
0
  0
VERTEX
  8
72_ARTEK_AKFURNITURE_D2SNAP
 10
0.2891
 20
0.0125
 30
0
  0
VERTEX
  8
72_ARTEK_AKFURNITURE_D2SNAP
 10
0.286661
 20
0.0122598
 30
0
  0
VERTEX
  8
72_ARTEK_AKFURNITURE_D2SNAP
 10
0.284316
 20
0.0115485
 30
0
  0
VERTEX
  8
72_ARTEK_AKFURNITURE_D2SNAP
 10
0.282155
 20
0.0103934
 30
0
  0
VERTEX
  8
72_ARTEK_AKFURNITURE_D2SNAP
 10
0.280261
 20
0.00883883
 30
0
  0
VERTEX
  8
72_ARTEK_AKFURNITURE_D2SNAP
 10
0.278707
 20
0.00694463
 30
0
  0
VERTEX
  8
72_ARTEK_AKFURNITURE_D2SNAP
 10
0.277552
 20
0.00478354
 30
0
  0
VERTEX
  8
72_ARTEK_AKFURNITURE_D2SNAP
 10
0.27684
 20
0.00243863
 30
0
  0
VERTEX
  8
72_ARTEK_AKFURNITURE_D2SNAP
 10
0.2766
 20
3.15316e-018
 30
0
  0
VERTEX
  8
72_ARTEK_AKFURNITURE_D2SNAP
 10
0.27684
 20
-0.00243863
 30
0
  0
VERTEX
  8
72_ARTEK_AKFURNITURE_D2SNAP
 10
0.277552
 20
-0.00478354
 30
0
  0
VERTEX
  8
72_ARTEK_AKFURNITURE_D2SNAP
 10
0.278707
 20
-0.00694463
 30
0
  0
VERTEX
  8
72_ARTEK_AKFURNITURE_D2SNAP
 10
0.280261
 20
-0.00883883
 30
0
  0
VERTEX
  8
72_ARTEK_AKFURNITURE_D2SNAP
 10
0.282155
 20
-0.0103934
 30
0
  0
VERTEX
  8
72_ARTEK_AKFURNITURE_D2SNAP
 10
0.284316
 20
-0.0115485
 30
0
  0
VERTEX
  8
72_ARTEK_AKFURNITURE_D2SNAP
 10
0.286661
 20
-0.0122598
 30
0
  0
VERTEX
  8
72_ARTEK_AKFURNITURE_D2SNAP
 10
0.2891
 20
-0.0125
 30
0
  0
VERTEX
  8
72_ARTEK_AKFURNITURE_D2SNAP
 10
0.291539
 20
-0.0122598
 30
0
  0
VERTEX
  8
72_ARTEK_AKFURNITURE_D2SNAP
 10
0.293884
 20
-0.0115485
 30
0
  0
VERTEX
  8
72_ARTEK_AKFURNITURE_D2SNAP
 10
0.296045
 20
-0.0103934
 30
0
  0
VERTEX
  8
72_ARTEK_AKFURNITURE_D2SNAP
 10
0.297939
 20
-0.00883883
 30
0
  0
VERTEX
  8
72_ARTEK_AKFURNITURE_D2SNAP
 10
0.299493
 20
-0.00694463
 30
0
  0
VERTEX
  8
72_ARTEK_AKFURNITURE_D2SNAP
 10
0.300648
 20
-0.00478354
 30
0
  0
VERTEX
  8
72_ARTEK_AKFURNITURE_D2SNAP
 10
0.30136
 20
-0.00243863
 30
0
  0
VERTEX
  8
72_ARTEK_AKFURNITURE_D2SNAP
 10
0.3016
 20
-0
 30
0
  0
SEQEND
  0
POLYLINE
  8
72_ARTEK_AKFURNITURE_D2SNAP
 66
     1
 70
     0
 10
0.0
 20
0.0
 30
0.0
  0
VERTEX
  8
72_ARTEK_AKFURNITURE_D2SNAP
 10
0.271422
 20
-0.0176777
 30
0
  0
VERTEX
  8
72_ARTEK_AKFURNITURE_D2SNAP
 10
0.306778
 20
0.0176777
 30
0
  0
SEQEND
  0
POLYLINE
  8
72_ARTEK_AKFURNITURE_D2SNAP
 66
     1
 70
     0
 10
0.0
 20
0.0
 30
0.0
  0
VERTEX
  8
72_ARTEK_AKFURNITURE_D2SNAP
 10
0.271422
 20
0.0176777
 30
0
  0
VERTEX
  8
72_ARTEK_AKFURNITURE_D2SNAP
 10
0.306778
 20
-0.0176777
 30
0
  0
SEQEND
  0
POLYLINE
  8
72_ARTEK_AKFURNITURE_D2_CH_BAC
 66
     1
 70
     0
 10
0.0
 20
0.0
 30
0.0
  0
VERTEX
  8
72_ARTEK_AKFURNITURE_D2_CH_BAC
 10
0.2891
 20
0.256595
 30
0
  0
VERTEX
  8
72_ARTEK_AKFURNITURE_D2_CH_BAC
 10
0.280416
 20
0.256525
 30
0
  0
VERTEX
  8
72_ARTEK_AKFURNITURE_D2_CH_BAC
 10
0.27173
 20
0.256314
 30
0
  0
VERTEX
  8
72_ARTEK_AKFURNITURE_D2_CH_BAC
 10
0.263047
 20
0.255955
 30
0
  0
VERTEX
  8
72_ARTEK_AKFURNITURE_D2_CH_BAC
 10
0.254372
 20
0.255443
 30
0
  0
VERTEX
  8
72_ARTEK_AKFURNITURE_D2_CH_BAC
 10
0.245709
 20
0.254771
 30
0
  0
VERTEX
  8
72_ARTEK_AKFURNITURE_D2_CH_BAC
 10
0.237065
 20
0.253935
 30
0
  0
VERTEX
  8
72_ARTEK_AKFURNITURE_D2_CH_BAC
 10
0.228443
 20
0.252928
 30
0
  0
VERTEX
  8
72_ARTEK_AKFURNITURE_D2_CH_BAC
 10
0.219847
 20
0.251745
 30
0
  0
VERTEX
  8
72_ARTEK_AKFURNITURE_D2_CH_BAC
 10
0.211284
 20
0.25038
 30
0
  0
VERTEX
  8
72_ARTEK_AKFURNITURE_D2_CH_BAC
 10
0.202758
 20
0.248828
 30
0
  0
VERTEX
  8
72_ARTEK_AKFURNITURE_D2_CH_BAC
 10
0.194273
 20
0.247082
 30
0
  0
VERTEX
  8
72_ARTEK_AKFURNITURE_D2_CH_BAC
 10
0.185835
 20
0.245138
 30
0
  0
VERTEX
  8
72_ARTEK_AKFURNITURE_D2_CH_BAC
 10
0.177448
 20
0.242989
 30
0
  0
VERTEX
  8
72_ARTEK_AKFURNITURE_D2_CH_BAC
 10
0.169117
 20
0.24063
 30
0
  0
VERTEX
  8
72_ARTEK_AKFURNITURE_D2_CH_BAC
 10
0.160846
 20
0.238055
 30
0
  0
VERTEX
  8
72_ARTEK_AKFURNITURE_D2_CH_BAC
 10
0.152642
 20
0.235258
 30
0
  0
VERTEX
  8
72_ARTEK_AKFURNITURE_D2_CH_BAC
 10
0.144508
 20
0.232235
 30
0
  0
VERTEX
  8
72_ARTEK_AKFURNITURE_D2_CH_BAC
 10
0.13645
 20
0.228978
 30
0
  0
VERTEX
  8
72_ARTEK_AKFURNITURE_D2_CH_BAC
 10
0.128471
 20
0.225482
 30
0
  0
VERTEX
  8
72_ARTEK_AKFURNITURE_D2_CH_BAC
 10
0.120577
 20
0.221743
 30
0
  0
VERTEX
  8
72_ARTEK_AKFURNITURE_D2_CH_BAC
 10
0.118154
 20
0.220533
 30
0
  0
VERTEX
  8
72_ARTEK_AKFURNITURE_D2_CH_BAC
 10
0.115747
 20
0.219296
 30
0
  0
VERTEX
  8
72_ARTEK_AKFURNITURE_D2_CH_BAC
 10
0.113358
 20
0.21803
 30
0
  0
VERTEX
  8
72_ARTEK_AKFURNITURE_D2_CH_BAC
 10
0.110988
 20
0.216734
 30
0
  0
VERTEX
  8
72_ARTEK_AKFURNITURE_D2_CH_BAC
 10
0.108639
 20
0.215407
 30
0
  0
VERTEX
  8
72_ARTEK_AKFURNITURE_D2_CH_BAC
 10
0.10631
 20
0.214049
 30
0
  0
VERTEX
  8
72_ARTEK_AKFURNITURE_D2_CH_BAC
 10
0.104004
 20
0.212656
 30
0
  0
VERTEX
  8
72_ARTEK_AKFURNITURE_D2_CH_BAC
 10
0.101723
 20
0.21123
 30
0
  0
VERTEX
  8
72_ARTEK_AKFURNITURE_D2_CH_BAC
 10
0.0994656
 20
0.209767
 30
0
  0
VERTEX
  8
72_ARTEK_AKFURNITURE_D2_CH_BAC
 10
0.0972347
 20
0.208268
 30
0
  0
VERTEX
  8
72_ARTEK_AKFURNITURE_D2_CH_BAC
 10
0.0950311
 20
0.20673
 30
0
  0
VERTEX
  8
72_ARTEK_AKFURNITURE_D2_CH_BAC
 10
0.0928561
 20
0.205153
 30
0
  0
VERTEX
  8
72_ARTEK_AKFURNITURE_D2_CH_BAC
 10
0.090711
 20
0.203535
 30
0
  0
VERTEX
  8
72_ARTEK_AKFURNITURE_D2_CH_BAC
 10
0.0885964
 20
0.201876
 30
0
  0
VERTEX
  8
72_ARTEK_AKFURNITURE_D2_CH_BAC
 10
0.0865142
 20
0.200173
 30
0
  0
VERTEX
  8
72_ARTEK_AKFURNITURE_D2_CH_BAC
 10
0.0844653
 20
0.198427
 30
0
  0
VERTEX
  8
72_ARTEK_AKFURNITURE_D2_CH_BAC
 10
0.0824511
 20
0.196635
 30
0
  0
VERTEX
  8
72_ARTEK_AKFURNITURE_D2_CH_BAC
 10
0.0804723
 20
0.194796
 30
0
  0
VERTEX
  8
72_ARTEK_AKFURNITURE_D2_CH_BAC
 10
0.0785302
 20
0.19291
 30
0
  0
VERTEX
  8
72_ARTEK_AKFURNITURE_D2_CH_BAC
 10
0.0766265
 20
0.190974
 30
0
  0
VERTEX
  8
72_ARTEK_AKFURNITURE_D2_CH_BAC
 10
0.0758956
 20
0.190213
 30
0
  0
VERTEX
  8
72_ARTEK_AKFURNITURE_D2_CH_BAC
 10
0.0751632
 20
0.189445
 30
0
  0
VERTEX
  8
72_ARTEK_AKFURNITURE_D2_CH_BAC
 10
0.0744314
 20
0.18867
 30
0
  0
VERTEX
  8
72_ARTEK_AKFURNITURE_D2_CH_BAC
 10
0.0737017
 20
0.187887
 30
0
  0
VERTEX
  8
72_ARTEK_AKFURNITURE_D2_CH_BAC
 10
0.072976
 20
0.187097
 30
0
  0
VERTEX
  8
72_ARTEK_AKFURNITURE_D2_CH_BAC
 10
0.0722567
 20
0.186297
 30
0
  0
VERTEX
  8
72_ARTEK_AKFURNITURE_D2_CH_BAC
 10
0.0715456
 20
0.185489
 30
0
  0
VERTEX
  8
72_ARTEK_AKFURNITURE_D2_CH_BAC
 10
0.0708443
 20
0.184671
 30
0
  0
VERTEX
  8
72_ARTEK_AKFURNITURE_D2_CH_BAC
 10
0.070155
 20
0.183843
 30
0
  0
VERTEX
  8
72_ARTEK_AKFURNITURE_D2_CH_BAC
 10
0.0694799
 20
0.183004
 30
0
  0
VERTEX
  8
72_ARTEK_AKFURNITURE_D2_CH_BAC
 10
0.0688201
 20
0.182153
 30
0
  0
VERTEX
  8
72_ARTEK_AKFURNITURE_D2_CH_BAC
 10
0.0681783
 20
0.18129
 30
0
  0
VERTEX
  8
72_ARTEK_AKFURNITURE_D2_CH_BAC
 10
0.0675564
 20
0.180415
 30
0
  0
VERTEX
  8
72_ARTEK_AKFURNITURE_D2_CH_BAC
 10
0.0669558
 20
0.179527
 30
0
  0
VERTEX
  8
72_ARTEK_AKFURNITURE_D2_CH_BAC
 10
0.066379
 20
0.178625
 30
0
  0
VERTEX
  8
72_ARTEK_AKFURNITURE_D2_CH_BAC
 10
0.0658276
 20
0.177708
 30
0
  0
VERTEX
  8
72_ARTEK_AKFURNITURE_D2_CH_BAC
 10
0.0653033
 20
0.176777
 30
0
  0
VERTEX
  8
72_ARTEK_AKFURNITURE_D2_CH_BAC
 10
0.0648086
 20
0.175831
 30
0
  0
VERTEX
  8
72_ARTEK_AKFURNITURE_D2_CH_BAC
 10
0.0643453
 20
0.174868
 30
0
  0
VERTEX
  8
72_ARTEK_AKFURNITURE_D2_CH_BAC
 10
0.063915
 20
0.173889
 30
0
  0
VERTEX
  8
72_ARTEK_AKFURNITURE_D2_CH_BAC
 10
0.0633019
 20
0.172259
 30
0
  0
VERTEX
  8
72_ARTEK_AKFURNITURE_D2_CH_BAC
 10
0.0628048
 20
0.170588
 30
0
  0
VERTEX
  8
72_ARTEK_AKFURNITURE_D2_CH_BAC
 10
0.0624197
 20
0.168882
 30
0
  0
VERTEX
  8
72_ARTEK_AKFURNITURE_D2_CH_BAC
 10
0.0621429
 20
0.167146
 30
0
  0
VERTEX
  8
72_ARTEK_AKFURNITURE_D2_CH_BAC
 10
0.0619704
 20
0.165386
 30
0
  0
VERTEX
  8
72_ARTEK_AKFURNITURE_D2_CH_BAC
 10
0.0618984
 20
0.163608
 30
0
  0
VERTEX
  8
72_ARTEK_AKFURNITURE_D2_CH_BAC
 10
0.0619231
 20
0.161818
 30
0
  0
VERTEX
  8
72_ARTEK_AKFURNITURE_D2_CH_BAC
 10
0.0620406
 20
0.160021
 30
0
  0
VERTEX
  8
72_ARTEK_AKFURNITURE_D2_CH_BAC
 10
0.0622472
 20
0.158223
 30
0
  0
VERTEX
  8
72_ARTEK_AKFURNITURE_D2_CH_BAC
 10
0.0625387
 20
0.15643
 30
0
  0
VERTEX
  8
72_ARTEK_AKFURNITURE_D2_CH_BAC
 10
0.0629116
 20
0.154647
 30
0
  0
VERTEX
  8
72_ARTEK_AKFURNITURE_D2_CH_BAC
 10
0.063362
 20
0.152881
 30
0
  0
VERTEX
  8
72_ARTEK_AKFURNITURE_D2_CH_BAC
 10
0.0638857
 20
0.151137
 30
0
  0
VERTEX
  8
72_ARTEK_AKFURNITURE_D2_CH_BAC
 10
0.064479
 20
0.14942
 30
0
  0
VERTEX
  8
72_ARTEK_AKFURNITURE_D2_CH_BAC
 10
0.0651385
 20
0.147737
 30
0
  0
VERTEX
  8
72_ARTEK_AKFURNITURE_D2_CH_BAC
 10
0.0658596
 20
0.146094
 30
0
  0
VERTEX
  8
72_ARTEK_AKFURNITURE_D2_CH_BAC
 10
0.066639
 20
0.144495
 30
0
  0
VERTEX
  8
72_ARTEK_AKFURNITURE_D2_CH_BAC
 10
0.0674725
 20
0.142947
 30
0
  0
VERTEX
  8
72_ARTEK_AKFURNITURE_D2_CH_BAC
 10
0.0683566
 20
0.141455
 30
0
  0
VERTEX
  8
72_ARTEK_AKFURNITURE_D2_CH_BAC
 10
0.069287
 20
0.140025
 30
0
  0
VERTEX
  8
72_ARTEK_AKFURNITURE_D2_CH_BAC
 10
0.0696398
 20
0.139516
 30
0
  0
VERTEX
  8
72_ARTEK_AKFURNITURE_D2_CH_BAC
 10
0.0700091
 20
0.139
 30
0
  0
VERTEX
  8
72_ARTEK_AKFURNITURE_D2_CH_BAC
 10
0.0703948
 20
0.138481
 30
0
  0
VERTEX
  8
72_ARTEK_AKFURNITURE_D2_CH_BAC
 10
0.0707973
 20
0.137962
 30
0
  0
VERTEX
  8
72_ARTEK_AKFURNITURE_D2_CH_BAC
 10
0.071216
 20
0.137448
 30
0
  0
VERTEX
  8
72_ARTEK_AKFURNITURE_D2_CH_BAC
 10
0.0716515
 20
0.136941
 30
0
  0
VERTEX
  8
72_ARTEK_AKFURNITURE_D2_CH_BAC
 10
0.0721035
 20
0.136446
 30
0
  0
VERTEX
  8
72_ARTEK_AKFURNITURE_D2_CH_BAC
 10
0.0725722
 20
0.135966
 30
0
  0
VERTEX
  8
72_ARTEK_AKFURNITURE_D2_CH_BAC
 10
0.0730572
 20
0.135504
 30
0
  0
VERTEX
  8
72_ARTEK_AKFURNITURE_D2_CH_BAC
 10
0.0735586
 20
0.135065
 30
0
  0
VERTEX
  8
72_ARTEK_AKFURNITURE_D2_CH_BAC
 10
0.0740768
 20
0.134651
 30
0
  0
VERTEX
  8
72_ARTEK_AKFURNITURE_D2_CH_BAC
 10
0.0746114
 20
0.134267
 30
0
  0
VERTEX
  8
72_ARTEK_AKFURNITURE_D2_CH_BAC
 10
0.0751626
 20
0.133916
 30
0
  0
VERTEX
  8
72_ARTEK_AKFURNITURE_D2_CH_BAC
 10
0.0757302
 20
0.133601
 30
0
  0
VERTEX
  8
72_ARTEK_AKFURNITURE_D2_CH_BAC
 10
0.0763143
 20
0.133327
 30
0
  0
VERTEX
  8
72_ARTEK_AKFURNITURE_D2_CH_BAC
 10
0.0768722
 20
0.133113
 30
0
  0
VERTEX
  8
72_ARTEK_AKFURNITURE_D2_CH_BAC
 10
0.077591
 20
0.132952
 30
0
  0
VERTEX
  8
72_ARTEK_AKFURNITURE_D2_CH_BAC
 10
0.0784079
 20
0.132836
 30
0
  0
VERTEX
  8
72_ARTEK_AKFURNITURE_D2_CH_BAC
 10
0.0792275
 20
0.132782
 30
0
  0
VERTEX
  8
72_ARTEK_AKFURNITURE_D2_CH_BAC
 10
0.080044
 20
0.132785
 30
0
  0
VERTEX
  8
72_ARTEK_AKFURNITURE_D2_CH_BAC
 10
0.080867
 20
0.13284
 30
0
  0
VERTEX
  8
72_ARTEK_AKFURNITURE_D2_CH_BAC
 10
0.0816903
 20
0.132945
 30
0
  0
VERTEX
  8
72_ARTEK_AKFURNITURE_D2_CH_BAC
 10
0.0825127
 20
0.133093
 30
0
  0
VERTEX
  8
72_ARTEK_AKFURNITURE_D2_CH_BAC
 10
0.0833332
 20
0.133282
 30
0
  0
VERTEX
  8
72_ARTEK_AKFURNITURE_D2_CH_BAC
 10
0.0841507
 20
0.133506
 30
0
  0
VERTEX
  8
72_ARTEK_AKFURNITURE_D2_CH_BAC
 10
0.0849642
 20
0.133761
 30
0
  0
VERTEX
  8
72_ARTEK_AKFURNITURE_D2_CH_BAC
 10
0.0857725
 20
0.134044
 30
0
  0
VERTEX
  8
72_ARTEK_AKFURNITURE_D2_CH_BAC
 10
0.0865749
 20
0.134349
 30
0
  0
VERTEX
  8
72_ARTEK_AKFURNITURE_D2_CH_BAC
 10
0.0873704
 20
0.134673
 30
0
  0
VERTEX
  8
72_ARTEK_AKFURNITURE_D2_CH_BAC
 10
0.0881575
 20
0.135011
 30
0
  0
VERTEX
  8
72_ARTEK_AKFURNITURE_D2_CH_BAC
 10
0.0889358
 20
0.135359
 30
0
  0
VERTEX
  8
72_ARTEK_AKFURNITURE_D2_CH_BAC
 10
0.089704
 20
0.135712
 30
0
  0
VERTEX
  8
72_ARTEK_AKFURNITURE_D2_CH_BAC
 10
0.0904609
 20
0.136067
 30
0
  0
VERTEX
  8
72_ARTEK_AKFURNITURE_D2_CH_BAC
 10
0.0912058
 20
0.136418
 30
0
  0
VERTEX
  8
72_ARTEK_AKFURNITURE_D2_CH_BAC
 10
0.0919375
 20
0.136763
 30
0
  0
VERTEX
  8
72_ARTEK_AKFURNITURE_D2_CH_BAC
 10
0.0926552
 20
0.137095
 30
0
  0
VERTEX
  8
72_ARTEK_AKFURNITURE_D2_CH_BAC
 10
0.106389
 20
0.143518
 30
0
  0
VERTEX
  8
72_ARTEK_AKFURNITURE_D2_CH_BAC
 10
0.108394
 20
0.144478
 30
0
  0
VERTEX
  8
72_ARTEK_AKFURNITURE_D2_CH_BAC
 10
0.110397
 20
0.145439
 30
0
  0
VERTEX
  8
72_ARTEK_AKFURNITURE_D2_CH_BAC
 10
0.112398
 20
0.146401
 30
0
  0
VERTEX
  8
72_ARTEK_AKFURNITURE_D2_CH_BAC
 10
0.114399
 20
0.147362
 30
0
  0
VERTEX
  8
72_ARTEK_AKFURNITURE_D2_CH_BAC
 10
0.116398
 20
0.148323
 30
0
  0
VERTEX
  8
72_ARTEK_AKFURNITURE_D2_CH_BAC
 10
0.118398
 20
0.149282
 30
0
  0
VERTEX
  8
72_ARTEK_AKFURNITURE_D2_CH_BAC
 10
0.120398
 20
0.150238
 30
0
  0
VERTEX
  8
72_ARTEK_AKFURNITURE_D2_CH_BAC
 10
0.122399
 20
0.151192
 30
0
  0
VERTEX
  8
72_ARTEK_AKFURNITURE_D2_CH_BAC
 10
0.124402
 20
0.152141
 30
0
  0
VERTEX
  8
72_ARTEK_AKFURNITURE_D2_CH_BAC
 10
0.126406
 20
0.153086
 30
0
  0
VERTEX
  8
72_ARTEK_AKFURNITURE_D2_CH_BAC
 10
0.128413
 20
0.154026
 30
0
  0
VERTEX
  8
72_ARTEK_AKFURNITURE_D2_CH_BAC
 10
0.130423
 20
0.15496
 30
0
  0
VERTEX
  8
72_ARTEK_AKFURNITURE_D2_CH_BAC
 10
0.132436
 20
0.155887
 30
0
  0
VERTEX
  8
72_ARTEK_AKFURNITURE_D2_CH_BAC
 10
0.134453
 20
0.156806
 30
0
  0
VERTEX
  8
72_ARTEK_AKFURNITURE_D2_CH_BAC
 10
0.136475
 20
0.157718
 30
0
  0
VERTEX
  8
72_ARTEK_AKFURNITURE_D2_CH_BAC
 10
0.138501
 20
0.15862
 30
0
  0
VERTEX
  8
72_ARTEK_AKFURNITURE_D2_CH_BAC
 10
0.140533
 20
0.159513
 30
0
  0
VERTEX
  8
72_ARTEK_AKFURNITURE_D2_CH_BAC
 10
0.142571
 20
0.160395
 30
0
  0
VERTEX
  8
72_ARTEK_AKFURNITURE_D2_CH_BAC
 10
0.144615
 20
0.161266
 30
0
  0
VERTEX
  8
72_ARTEK_AKFURNITURE_D2_CH_BAC
 10
0.146666
 20
0.162126
 30
0
  0
VERTEX
  8
72_ARTEK_AKFURNITURE_D2_CH_BAC
 10
0.153514
 20
0.164898
 30
0
  0
VERTEX
  8
72_ARTEK_AKFURNITURE_D2_CH_BAC
 10
0.160392
 20
0.167538
 30
0
  0
VERTEX
  8
72_ARTEK_AKFURNITURE_D2_CH_BAC
 10
0.1673
 20
0.170048
 30
0
  0
VERTEX
  8
72_ARTEK_AKFURNITURE_D2_CH_BAC
 10
0.174237
 20
0.172425
 30
0
  0
VERTEX
  8
72_ARTEK_AKFURNITURE_D2_CH_BAC
 10
0.181204
 20
0.174672
 30
0
  0
VERTEX
  8
72_ARTEK_AKFURNITURE_D2_CH_BAC
 10
0.188201
 20
0.176787
 30
0
  0
VERTEX
  8
72_ARTEK_AKFURNITURE_D2_CH_BAC
 10
0.195226
 20
0.178771
 30
0
  0
VERTEX
  8
72_ARTEK_AKFURNITURE_D2_CH_BAC
 10
0.20228
 20
0.180623
 30
0
  0
VERTEX
  8
72_ARTEK_AKFURNITURE_D2_CH_BAC
 10
0.209363
 20
0.182344
 30
0
  0
VERTEX
  8
72_ARTEK_AKFURNITURE_D2_CH_BAC
 10
0.216474
 20
0.183933
 30
0
  0
VERTEX
  8
72_ARTEK_AKFURNITURE_D2_CH_BAC
 10
0.223614
 20
0.185391
 30
0
  0
VERTEX
  8
72_ARTEK_AKFURNITURE_D2_CH_BAC
 10
0.230781
 20
0.186718
 30
0
  0
VERTEX
  8
72_ARTEK_AKFURNITURE_D2_CH_BAC
 10
0.237976
 20
0.187912
 30
0
  0
VERTEX
  8
72_ARTEK_AKFURNITURE_D2_CH_BAC
 10
0.245199
 20
0.188976
 30
0
  0
VERTEX
  8
72_ARTEK_AKFURNITURE_D2_CH_BAC
 10
0.252448
 20
0.189908
 30
0
  0
VERTEX
  8
72_ARTEK_AKFURNITURE_D2_CH_BAC
 10
0.259726
 20
0.190708
 30
0
  0
VERTEX
  8
72_ARTEK_AKFURNITURE_D2_CH_BAC
 10
0.2641
 20
0.191109
 30
0
  0
VERTEX
  8
72_ARTEK_AKFURNITURE_D2_CH_BAC
 10
0.26703
 20
0.191377
 30
0
  0
VERTEX
  8
72_ARTEK_AKFURNITURE_D2_CH_BAC
 10
0.27436
 20
0.191914
 30
0
  0
VERTEX
  8
72_ARTEK_AKFURNITURE_D2_CH_BAC
 10
0.281717
 20
0.19232
 30
0
  0
VERTEX
  8
72_ARTEK_AKFURNITURE_D2_CH_BAC
 10
0.2891
 20
0.192594
 30
0
  0
VERTEX
  8
72_ARTEK_AKFURNITURE_D2_CH_BAC
 10
0.296483
 20
0.19232
 30
0
  0
VERTEX
  8
72_ARTEK_AKFURNITURE_D2_CH_BAC
 10
0.30384
 20
0.191914
 30
0
  0
VERTEX
  8
72_ARTEK_AKFURNITURE_D2_CH_BAC
 10
0.31117
 20
0.191377
 30
0
  0
VERTEX
  8
72_ARTEK_AKFURNITURE_D2_CH_BAC
 10
0.3141
 20
0.191109
 30
0
  0
VERTEX
  8
72_ARTEK_AKFURNITURE_D2_CH_BAC
 10
0.318474
 20
0.190708
 30
0
  0
VERTEX
  8
72_ARTEK_AKFURNITURE_D2_CH_BAC
 10
0.325751
 20
0.189908
 30
0
  0
VERTEX
  8
72_ARTEK_AKFURNITURE_D2_CH_BAC
 10
0.333001
 20
0.188976
 30
0
  0
VERTEX
  8
72_ARTEK_AKFURNITURE_D2_CH_BAC
 10
0.340224
 20
0.187912
 30
0
  0
VERTEX
  8
72_ARTEK_AKFURNITURE_D2_CH_BAC
 10
0.347419
 20
0.186718
 30
0
  0
VERTEX
  8
72_ARTEK_AKFURNITURE_D2_CH_BAC
 10
0.354586
 20
0.185391
 30
0
  0
VERTEX
  8
72_ARTEK_AKFURNITURE_D2_CH_BAC
 10
0.361726
 20
0.183933
 30
0
  0
VERTEX
  8
72_ARTEK_AKFURNITURE_D2_CH_BAC
 10
0.368837
 20
0.182344
 30
0
  0
VERTEX
  8
72_ARTEK_AKFURNITURE_D2_CH_BAC
 10
0.37592
 20
0.180623
 30
0
  0
VERTEX
  8
72_ARTEK_AKFURNITURE_D2_CH_BAC
 10
0.382974
 20
0.178771
 30
0
  0
VERTEX
  8
72_ARTEK_AKFURNITURE_D2_CH_BAC
 10
0.389999
 20
0.176787
 30
0
  0
VERTEX
  8
72_ARTEK_AKFURNITURE_D2_CH_BAC
 10
0.396996
 20
0.174672
 30
0
  0
VERTEX
  8
72_ARTEK_AKFURNITURE_D2_CH_BAC
 10
0.403963
 20
0.172425
 30
0
  0
VERTEX
  8
72_ARTEK_AKFURNITURE_D2_CH_BAC
 10
0.4109
 20
0.170048
 30
0
  0
VERTEX
  8
72_ARTEK_AKFURNITURE_D2_CH_BAC
 10
0.417808
 20
0.167538
 30
0
  0
VERTEX
  8
72_ARTEK_AKFURNITURE_D2_CH_BAC
 10
0.424686
 20
0.164898
 30
0
  0
VERTEX
  8
72_ARTEK_AKFURNITURE_D2_CH_BAC
 10
0.431534
 20
0.162126
 30
0
  0
VERTEX
  8
72_ARTEK_AKFURNITURE_D2_CH_BAC
 10
0.433585
 20
0.161266
 30
0
  0
VERTEX
  8
72_ARTEK_AKFURNITURE_D2_CH_BAC
 10
0.435629
 20
0.160395
 30
0
  0
VERTEX
  8
72_ARTEK_AKFURNITURE_D2_CH_BAC
 10
0.437667
 20
0.159513
 30
0
  0
VERTEX
  8
72_ARTEK_AKFURNITURE_D2_CH_BAC
 10
0.439699
 20
0.15862
 30
0
  0
VERTEX
  8
72_ARTEK_AKFURNITURE_D2_CH_BAC
 10
0.441725
 20
0.157718
 30
0
  0
VERTEX
  8
72_ARTEK_AKFURNITURE_D2_CH_BAC
 10
0.443747
 20
0.156806
 30
0
  0
VERTEX
  8
72_ARTEK_AKFURNITURE_D2_CH_BAC
 10
0.445764
 20
0.155887
 30
0
  0
VERTEX
  8
72_ARTEK_AKFURNITURE_D2_CH_BAC
 10
0.447777
 20
0.15496
 30
0
  0
VERTEX
  8
72_ARTEK_AKFURNITURE_D2_CH_BAC
 10
0.449787
 20
0.154026
 30
0
  0
VERTEX
  8
72_ARTEK_AKFURNITURE_D2_CH_BAC
 10
0.451794
 20
0.153086
 30
0
  0
VERTEX
  8
72_ARTEK_AKFURNITURE_D2_CH_BAC
 10
0.453798
 20
0.152141
 30
0
  0
VERTEX
  8
72_ARTEK_AKFURNITURE_D2_CH_BAC
 10
0.4558
 20
0.151192
 30
0
  0
VERTEX
  8
72_ARTEK_AKFURNITURE_D2_CH_BAC
 10
0.457802
 20
0.150238
 30
0
  0
VERTEX
  8
72_ARTEK_AKFURNITURE_D2_CH_BAC
 10
0.459802
 20
0.149282
 30
0
  0
VERTEX
  8
72_ARTEK_AKFURNITURE_D2_CH_BAC
 10
0.461801
 20
0.148323
 30
0
  0
VERTEX
  8
72_ARTEK_AKFURNITURE_D2_CH_BAC
 10
0.463801
 20
0.147362
 30
0
  0
VERTEX
  8
72_ARTEK_AKFURNITURE_D2_CH_BAC
 10
0.465802
 20
0.146401
 30
0
  0
VERTEX
  8
72_ARTEK_AKFURNITURE_D2_CH_BAC
 10
0.467803
 20
0.145439
 30
0
  0
VERTEX
  8
72_ARTEK_AKFURNITURE_D2_CH_BAC
 10
0.469806
 20
0.144478
 30
0
  0
VERTEX
  8
72_ARTEK_AKFURNITURE_D2_CH_BAC
 10
0.471811
 20
0.143518
 30
0
  0
VERTEX
  8
72_ARTEK_AKFURNITURE_D2_CH_BAC
 10
0.485545
 20
0.137095
 30
0
  0
VERTEX
  8
72_ARTEK_AKFURNITURE_D2_CH_BAC
 10
0.486262
 20
0.136763
 30
0
  0
VERTEX
  8
72_ARTEK_AKFURNITURE_D2_CH_BAC
 10
0.486994
 20
0.136418
 30
0
  0
VERTEX
  8
72_ARTEK_AKFURNITURE_D2_CH_BAC
 10
0.487739
 20
0.136067
 30
0
  0
VERTEX
  8
72_ARTEK_AKFURNITURE_D2_CH_BAC
 10
0.488496
 20
0.135712
 30
0
  0
VERTEX
  8
72_ARTEK_AKFURNITURE_D2_CH_BAC
 10
0.489264
 20
0.135359
 30
0
  0
VERTEX
  8
72_ARTEK_AKFURNITURE_D2_CH_BAC
 10
0.490042
 20
0.135011
 30
0
  0
VERTEX
  8
72_ARTEK_AKFURNITURE_D2_CH_BAC
 10
0.49083
 20
0.134673
 30
0
  0
VERTEX
  8
72_ARTEK_AKFURNITURE_D2_CH_BAC
 10
0.491625
 20
0.134349
 30
0
  0
VERTEX
  8
72_ARTEK_AKFURNITURE_D2_CH_BAC
 10
0.492427
 20
0.134044
 30
0
  0
VERTEX
  8
72_ARTEK_AKFURNITURE_D2_CH_BAC
 10
0.493236
 20
0.133761
 30
0
  0
VERTEX
  8
72_ARTEK_AKFURNITURE_D2_CH_BAC
 10
0.494049
 20
0.133506
 30
0
  0
VERTEX
  8
72_ARTEK_AKFURNITURE_D2_CH_BAC
 10
0.494867
 20
0.133282
 30
0
  0
VERTEX
  8
72_ARTEK_AKFURNITURE_D2_CH_BAC
 10
0.495687
 20
0.133093
 30
0
  0
VERTEX
  8
72_ARTEK_AKFURNITURE_D2_CH_BAC
 10
0.49651
 20
0.132945
 30
0
  0
VERTEX
  8
72_ARTEK_AKFURNITURE_D2_CH_BAC
 10
0.497333
 20
0.13284
 30
0
  0
VERTEX
  8
72_ARTEK_AKFURNITURE_D2_CH_BAC
 10
0.498156
 20
0.132785
 30
0
  0
VERTEX
  8
72_ARTEK_AKFURNITURE_D2_CH_BAC
 10
0.498972
 20
0.132782
 30
0
  0
VERTEX
  8
72_ARTEK_AKFURNITURE_D2_CH_BAC
 10
0.499792
 20
0.132836
 30
0
  0
VERTEX
  8
72_ARTEK_AKFURNITURE_D2_CH_BAC
 10
0.500609
 20
0.132952
 30
0
  0
VERTEX
  8
72_ARTEK_AKFURNITURE_D2_CH_BAC
 10
0.501328
 20
0.133113
 30
0
  0
VERTEX
  8
72_ARTEK_AKFURNITURE_D2_CH_BAC
 10
0.501886
 20
0.133327
 30
0
  0
VERTEX
  8
72_ARTEK_AKFURNITURE_D2_CH_BAC
 10
0.50247
 20
0.133601
 30
0
  0
VERTEX
  8
72_ARTEK_AKFURNITURE_D2_CH_BAC
 10
0.503037
 20
0.133916
 30
0
  0
VERTEX
  8
72_ARTEK_AKFURNITURE_D2_CH_BAC
 10
0.503588
 20
0.134267
 30
0
  0
VERTEX
  8
72_ARTEK_AKFURNITURE_D2_CH_BAC
 10
0.504123
 20
0.134651
 30
0
  0
VERTEX
  8
72_ARTEK_AKFURNITURE_D2_CH_BAC
 10
0.504641
 20
0.135065
 30
0
  0
VERTEX
  8
72_ARTEK_AKFURNITURE_D2_CH_BAC
 10
0.505143
 20
0.135504
 30
0
  0
VERTEX
  8
72_ARTEK_AKFURNITURE_D2_CH_BAC
 10
0.505628
 20
0.135966
 30
0
  0
VERTEX
  8
72_ARTEK_AKFURNITURE_D2_CH_BAC
 10
0.506096
 20
0.136446
 30
0
  0
VERTEX
  8
72_ARTEK_AKFURNITURE_D2_CH_BAC
 10
0.506548
 20
0.136941
 30
0
  0
VERTEX
  8
72_ARTEK_AKFURNITURE_D2_CH_BAC
 10
0.506984
 20
0.137448
 30
0
  0
VERTEX
  8
72_ARTEK_AKFURNITURE_D2_CH_BAC
 10
0.507403
 20
0.137962
 30
0
  0
VERTEX
  8
72_ARTEK_AKFURNITURE_D2_CH_BAC
 10
0.507805
 20
0.138481
 30
0
  0
VERTEX
  8
72_ARTEK_AKFURNITURE_D2_CH_BAC
 10
0.508191
 20
0.139
 30
0
  0
VERTEX
  8
72_ARTEK_AKFURNITURE_D2_CH_BAC
 10
0.50856
 20
0.139516
 30
0
  0
VERTEX
  8
72_ARTEK_AKFURNITURE_D2_CH_BAC
 10
0.508913
 20
0.140025
 30
0
  0
VERTEX
  8
72_ARTEK_AKFURNITURE_D2_CH_BAC
 10
0.509843
 20
0.141455
 30
0
  0
VERTEX
  8
72_ARTEK_AKFURNITURE_D2_CH_BAC
 10
0.510727
 20
0.142947
 30
0
  0
VERTEX
  8
72_ARTEK_AKFURNITURE_D2_CH_BAC
 10
0.511561
 20
0.144495
 30
0
  0
VERTEX
  8
72_ARTEK_AKFURNITURE_D2_CH_BAC
 10
0.51234
 20
0.146094
 30
0
  0
VERTEX
  8
72_ARTEK_AKFURNITURE_D2_CH_BAC
 10
0.513061
 20
0.147737
 30
0
  0
VERTEX
  8
72_ARTEK_AKFURNITURE_D2_CH_BAC
 10
0.513721
 20
0.14942
 30
0
  0
VERTEX
  8
72_ARTEK_AKFURNITURE_D2_CH_BAC
 10
0.514314
 20
0.151137
 30
0
  0
VERTEX
  8
72_ARTEK_AKFURNITURE_D2_CH_BAC
 10
0.514838
 20
0.152881
 30
0
  0
VERTEX
  8
72_ARTEK_AKFURNITURE_D2_CH_BAC
 10
0.515288
 20
0.154647
 30
0
  0
VERTEX
  8
72_ARTEK_AKFURNITURE_D2_CH_BAC
 10
0.515661
 20
0.15643
 30
0
  0
VERTEX
  8
72_ARTEK_AKFURNITURE_D2_CH_BAC
 10
0.515953
 20
0.158223
 30
0
  0
VERTEX
  8
72_ARTEK_AKFURNITURE_D2_CH_BAC
 10
0.516159
 20
0.160021
 30
0
  0
VERTEX
  8
72_ARTEK_AKFURNITURE_D2_CH_BAC
 10
0.516277
 20
0.161818
 30
0
  0
VERTEX
  8
72_ARTEK_AKFURNITURE_D2_CH_BAC
 10
0.516301
 20
0.163608
 30
0
  0
VERTEX
  8
72_ARTEK_AKFURNITURE_D2_CH_BAC
 10
0.516229
 20
0.165386
 30
0
  0
VERTEX
  8
72_ARTEK_AKFURNITURE_D2_CH_BAC
 10
0.516057
 20
0.167146
 30
0
  0
VERTEX
  8
72_ARTEK_AKFURNITURE_D2_CH_BAC
 10
0.51578
 20
0.168882
 30
0
  0
VERTEX
  8
72_ARTEK_AKFURNITURE_D2_CH_BAC
 10
0.515395
 20
0.170588
 30
0
  0
VERTEX
  8
72_ARTEK_AKFURNITURE_D2_CH_BAC
 10
0.514898
 20
0.172259
 30
0
  0
VERTEX
  8
72_ARTEK_AKFURNITURE_D2_CH_BAC
 10
0.514285
 20
0.173889
 30
0
  0
VERTEX
  8
72_ARTEK_AKFURNITURE_D2_CH_BAC
 10
0.513855
 20
0.174868
 30
0
  0
VERTEX
  8
72_ARTEK_AKFURNITURE_D2_CH_BAC
 10
0.513391
 20
0.175831
 30
0
  0
VERTEX
  8
72_ARTEK_AKFURNITURE_D2_CH_BAC
 10
0.512897
 20
0.176777
 30
0
  0
VERTEX
  8
72_ARTEK_AKFURNITURE_D2_CH_BAC
 10
0.512372
 20
0.177708
 30
0
  0
VERTEX
  8
72_ARTEK_AKFURNITURE_D2_CH_BAC
 10
0.511821
 20
0.178625
 30
0
  0
VERTEX
  8
72_ARTEK_AKFURNITURE_D2_CH_BAC
 10
0.511244
 20
0.179527
 30
0
  0
VERTEX
  8
72_ARTEK_AKFURNITURE_D2_CH_BAC
 10
0.510644
 20
0.180415
 30
0
  0
VERTEX
  8
72_ARTEK_AKFURNITURE_D2_CH_BAC
 10
0.510022
 20
0.18129
 30
0
  0
VERTEX
  8
72_ARTEK_AKFURNITURE_D2_CH_BAC
 10
0.50938
 20
0.182153
 30
0
  0
VERTEX
  8
72_ARTEK_AKFURNITURE_D2_CH_BAC
 10
0.50872
 20
0.183004
 30
0
  0
VERTEX
  8
72_ARTEK_AKFURNITURE_D2_CH_BAC
 10
0.508045
 20
0.183843
 30
0
  0
VERTEX
  8
72_ARTEK_AKFURNITURE_D2_CH_BAC
 10
0.507356
 20
0.184671
 30
0
  0
VERTEX
  8
72_ARTEK_AKFURNITURE_D2_CH_BAC
 10
0.506654
 20
0.185489
 30
0
  0
VERTEX
  8
72_ARTEK_AKFURNITURE_D2_CH_BAC
 10
0.505943
 20
0.186297
 30
0
  0
VERTEX
  8
72_ARTEK_AKFURNITURE_D2_CH_BAC
 10
0.505224
 20
0.187097
 30
0
  0
VERTEX
  8
72_ARTEK_AKFURNITURE_D2_CH_BAC
 10
0.504498
 20
0.187887
 30
0
  0
VERTEX
  8
72_ARTEK_AKFURNITURE_D2_CH_BAC
 10
0.503769
 20
0.18867
 30
0
  0
VERTEX
  8
72_ARTEK_AKFURNITURE_D2_CH_BAC
 10
0.503037
 20
0.189445
 30
0
  0
VERTEX
  8
72_ARTEK_AKFURNITURE_D2_CH_BAC
 10
0.502304
 20
0.190213
 30
0
  0
VERTEX
  8
72_ARTEK_AKFURNITURE_D2_CH_BAC
 10
0.501573
 20
0.190974
 30
0
  0
VERTEX
  8
72_ARTEK_AKFURNITURE_D2_CH_BAC
 10
0.49967
 20
0.19291
 30
0
  0
VERTEX
  8
72_ARTEK_AKFURNITURE_D2_CH_BAC
 10
0.497728
 20
0.194796
 30
0
  0
VERTEX
  8
72_ARTEK_AKFURNITURE_D2_CH_BAC
 10
0.495749
 20
0.196635
 30
0
  0
VERTEX
  8
72_ARTEK_AKFURNITURE_D2_CH_BAC
 10
0.493735
 20
0.198427
 30
0
  0
VERTEX
  8
72_ARTEK_AKFURNITURE_D2_CH_BAC
 10
0.491686
 20
0.200173
 30
0
  0
VERTEX
  8
72_ARTEK_AKFURNITURE_D2_CH_BAC
 10
0.489603
 20
0.201876
 30
0
  0
VERTEX
  8
72_ARTEK_AKFURNITURE_D2_CH_BAC
 10
0.487489
 20
0.203535
 30
0
  0
VERTEX
  8
72_ARTEK_AKFURNITURE_D2_CH_BAC
 10
0.485344
 20
0.205153
 30
0
  0
VERTEX
  8
72_ARTEK_AKFURNITURE_D2_CH_BAC
 10
0.483169
 20
0.20673
 30
0
  0
VERTEX
  8
72_ARTEK_AKFURNITURE_D2_CH_BAC
 10
0.480965
 20
0.208268
 30
0
  0
VERTEX
  8
72_ARTEK_AKFURNITURE_D2_CH_BAC
 10
0.478734
 20
0.209767
 30
0
  0
VERTEX
  8
72_ARTEK_AKFURNITURE_D2_CH_BAC
 10
0.476477
 20
0.21123
 30
0
  0
VERTEX
  8
72_ARTEK_AKFURNITURE_D2_CH_BAC
 10
0.474195
 20
0.212656
 30
0
  0
VERTEX
  8
72_ARTEK_AKFURNITURE_D2_CH_BAC
 10
0.47189
 20
0.214049
 30
0
  0
VERTEX
  8
72_ARTEK_AKFURNITURE_D2_CH_BAC
 10
0.469561
 20
0.215407
 30
0
  0
VERTEX
  8
72_ARTEK_AKFURNITURE_D2_CH_BAC
 10
0.467212
 20
0.216734
 30
0
  0
VERTEX
  8
72_ARTEK_AKFURNITURE_D2_CH_BAC
 10
0.464842
 20
0.21803
 30
0
  0
VERTEX
  8
72_ARTEK_AKFURNITURE_D2_CH_BAC
 10
0.462453
 20
0.219296
 30
0
  0
VERTEX
  8
72_ARTEK_AKFURNITURE_D2_CH_BAC
 10
0.460046
 20
0.220533
 30
0
  0
VERTEX
  8
72_ARTEK_AKFURNITURE_D2_CH_BAC
 10
0.457623
 20
0.221743
 30
0
  0
VERTEX
  8
72_ARTEK_AKFURNITURE_D2_CH_BAC
 10
0.449729
 20
0.225482
 30
0
  0
VERTEX
  8
72_ARTEK_AKFURNITURE_D2_CH_BAC
 10
0.44175
 20
0.228978
 30
0
  0
VERTEX
  8
72_ARTEK_AKFURNITURE_D2_CH_BAC
 10
0.433692
 20
0.232235
 30
0
  0
VERTEX
  8
72_ARTEK_AKFURNITURE_D2_CH_BAC
 10
0.425558
 20
0.235258
 30
0
  0
VERTEX
  8
72_ARTEK_AKFURNITURE_D2_CH_BAC
 10
0.417353
 20
0.238055
 30
0
  0
VERTEX
  8
72_ARTEK_AKFURNITURE_D2_CH_BAC
 10
0.409083
 20
0.24063
 30
0
  0
VERTEX
  8
72_ARTEK_AKFURNITURE_D2_CH_BAC
 10
0.400752
 20
0.242989
 30
0
  0
VERTEX
  8
72_ARTEK_AKFURNITURE_D2_CH_BAC
 10
0.392365
 20
0.245138
 30
0
  0
VERTEX
  8
72_ARTEK_AKFURNITURE_D2_CH_BAC
 10
0.383927
 20
0.247082
 30
0
  0
VERTEX
  8
72_ARTEK_AKFURNITURE_D2_CH_BAC
 10
0.375442
 20
0.248828
 30
0
  0
VERTEX
  8
72_ARTEK_AKFURNITURE_D2_CH_BAC
 10
0.366916
 20
0.25038
 30
0
  0
VERTEX
  8
72_ARTEK_AKFURNITURE_D2_CH_BAC
 10
0.358353
 20
0.251745
 30
0
  0
VERTEX
  8
72_ARTEK_AKFURNITURE_D2_CH_BAC
 10
0.349757
 20
0.252928
 30
0
  0
VERTEX
  8
72_ARTEK_AKFURNITURE_D2_CH_BAC
 10
0.341135
 20
0.253935
 30
0
  0
VERTEX
  8
72_ARTEK_AKFURNITURE_D2_CH_BAC
 10
0.33249
 20
0.254771
 30
0
  0
VERTEX
  8
72_ARTEK_AKFURNITURE_D2_CH_BAC
 10
0.323828
 20
0.255443
 30
0
  0
VERTEX
  8
72_ARTEK_AKFURNITURE_D2_CH_BAC
 10
0.315153
 20
0.255955
 30
0
  0
VERTEX
  8
72_ARTEK_AKFURNITURE_D2_CH_BAC
 10
0.30647
 20
0.256314
 30
0
  0
VERTEX
  8
72_ARTEK_AKFURNITURE_D2_CH_BAC
 10
0.297784
 20
0.256525
 30
0
  0
VERTEX
  8
72_ARTEK_AKFURNITURE_D2_CH_BAC
 10
0.2891
 20
0.256595
 30
0
  0
SEQEND
  0
POLYLINE
  8
72_ARTEK_AKFURNITURE_D2_CH_BAC
 66
     1
 70
     0
 10
0.0
 20
0.0
 30
0.0
  0
VERTEX
  8
72_ARTEK_AKFURNITURE_D2_CH_BAC
 10
0.303388
 20
0.262169
 30
0
  0
VERTEX
  8
72_ARTEK_AKFURNITURE_D2_CH_BAC
 10
0.275948
 20
0.262191
 30
0
  0
VERTEX
  8
72_ARTEK_AKFURNITURE_D2_CH_BAC
 10
0.248545
 20
0.260797
 30
0
  0
VERTEX
  8
72_ARTEK_AKFURNITURE_D2_CH_BAC
 10
0.221271
 20
0.257801
 30
0
  0
VERTEX
  8
72_ARTEK_AKFURNITURE_D2_CH_BAC
 10
0.194258
 20
0.253005
 30
0
  0
VERTEX
  8
72_ARTEK_AKFURNITURE_D2_CH_BAC
 10
0.167675
 20
0.24622
 30
0
  0
VERTEX
  8
72_ARTEK_AKFURNITURE_D2_CH_BAC
 10
0.141772
 20
0.237193
 30
0
  0
VERTEX
  8
72_ARTEK_AKFURNITURE_D2_CH_BAC
 10
0.116665
 20
0.226145
 30
0
  0
VERTEX
  8
72_ARTEK_AKFURNITURE_D2_CH_BAC
 10
0.104548
 20
0.219708
 30
0
  0
VERTEX
  8
72_ARTEK_AKFURNITURE_D2_CH_BAC
 10
0.0929627
 20
0.212364
 30
0
  0
VERTEX
  8
72_ARTEK_AKFURNITURE_D2_CH_BAC
 10
0.0821075
 20
0.20398
 30
0
  0
VERTEX
  8
72_ARTEK_AKFURNITURE_D2_CH_BAC
 10
0.0725388
 20
0.194895
 30
0
  0
VERTEX
  8
72_ARTEK_AKFURNITURE_D2_CH_BAC
 10
0.0660129
 20
0.187515
 30
0
  0
VERTEX
  8
72_ARTEK_AKFURNITURE_D2_CH_BAC
 10
0.0608218
 20
0.179133
 30
0
  0
VERTEX
  8
72_ARTEK_AKFURNITURE_D2_CH_BAC
 10
0.0593441
 20
0.175028
 30
0
  0
VERTEX
  8
72_ARTEK_AKFURNITURE_D2_CH_BAC
 10
0.0588821
 20
0.172463
 30
0
  0
VERTEX
  8
72_ARTEK_AKFURNITURE_D2_CH_BAC
 10
0.0587773
 20
0.168747
 30
0
  0
VERTEX
  8
72_ARTEK_AKFURNITURE_D2_CH_BAC
 10
0.0590879
 20
0.163327
 30
0
  0
VERTEX
  8
72_ARTEK_AKFURNITURE_D2_CH_BAC
 10
0.0595542
 20
0.159717
 30
0
  0
VERTEX
  8
72_ARTEK_AKFURNITURE_D2_CH_BAC
 10
0.0611575
 20
0.153419
 30
0
  0
VERTEX
  8
72_ARTEK_AKFURNITURE_D2_CH_BAC
 10
0.0636491
 20
0.147421
 30
0
  0
VERTEX
  8
72_ARTEK_AKFURNITURE_D2_CH_BAC
 10
0.0670654
 20
0.141891
 30
0
  0
VERTEX
  8
72_ARTEK_AKFURNITURE_D2_CH_BAC
 10
0.0710827
 20
0.136789
 30
0
  0
VERTEX
  8
72_ARTEK_AKFURNITURE_D2_CH_BAC
 10
0.0764473
 20
0.133235
 30
0
  0
VERTEX
  8
72_ARTEK_AKFURNITURE_D2_CH_BAC
 10
0.0780331
 20
0.132888
 30
0
  0
VERTEX
  8
72_ARTEK_AKFURNITURE_D2_CH_BAC
 10
0.0788413
 20
0.132807
 30
0
  0
VERTEX
  8
72_ARTEK_AKFURNITURE_D2_CH_BAC
 10
0.0788026
 20
0.13281
 30
0
  0
VERTEX
  8
72_ARTEK_AKFURNITURE_D2_CH_BAC
 10
0.0756852
 20
0.133626
 30
0
  0
VERTEX
  8
72_ARTEK_AKFURNITURE_D2_CH_BAC
 10
0.0708468
 20
0.137901
 30
0
  0
VERTEX
  8
72_ARTEK_AKFURNITURE_D2_CH_BAC
 10
0.06727
 20
0.143323
 30
0
  0
VERTEX
  8
72_ARTEK_AKFURNITURE_D2_CH_BAC
 10
0.0645554
 20
0.149225
 30
0
  0
VERTEX
  8
72_ARTEK_AKFURNITURE_D2_CH_BAC
 10
0.0627409
 20
0.155463
 30
0
  0
VERTEX
  8
72_ARTEK_AKFURNITURE_D2_CH_BAC
 10
0.0619219
 20
0.161906
 30
0
  0
VERTEX
  8
72_ARTEK_AKFURNITURE_D2_CH_BAC
 10
0.0623401
 20
0.168383
 30
0
  0
VERTEX
  8
72_ARTEK_AKFURNITURE_D2_CH_BAC
 10
0.0642222
 20
0.174588
 30
0
  0
VERTEX
  8
72_ARTEK_AKFURNITURE_D2_CH_BAC
 10
0.0674331
 20
0.180233
 30
0
  0
VERTEX
  8
72_ARTEK_AKFURNITURE_D2_CH_BAC
 10
0.0714319
 20
0.185356
 30
0
  0
VERTEX
  8
72_ARTEK_AKFURNITURE_D2_CH_BAC
 10
0.080423
 20
0.194748
 30
0
  0
VERTEX
  8
72_ARTEK_AKFURNITURE_D2_CH_BAC
 10
0.0902941
 20
0.203208
 30
0
  0
VERTEX
  8
72_ARTEK_AKFURNITURE_D2_CH_BAC
 10
0.100915
 20
0.210707
 30
0
  0
VERTEX
  8
72_ARTEK_AKFURNITURE_D2_CH_BAC
 10
0.112098
 20
0.217341
 30
0
  0
VERTEX
  8
72_ARTEK_AKFURNITURE_D2_CH_BAC
 10
0.135545
 20
0.228581
 30
0
  0
VERTEX
  8
72_ARTEK_AKFURNITURE_D2_CH_BAC
 10
0.159887
 20
0.237728
 30
0
  0
VERTEX
  8
72_ARTEK_AKFURNITURE_D2_CH_BAC
 10
0.184885
 20
0.244894
 30
0
  0
VERTEX
  8
72_ARTEK_AKFURNITURE_D2_CH_BAC
 10
0.210342
 20
0.250209
 30
0
  0
VERTEX
  8
72_ARTEK_AKFURNITURE_D2_CH_BAC
 10
0.236097
 20
0.253822
 30
0
  0
VERTEX
  8
72_ARTEK_AKFURNITURE_D2_CH_BAC
 10
0.262023
 20
0.255895
 30
0
  0
VERTEX
  8
72_ARTEK_AKFURNITURE_D2_CH_BAC
 10
0.288022
 20
0.256586
 30
0
  0
VERTEX
  8
72_ARTEK_AKFURNITURE_D2_CH_BAC
 10
0.314024
 20
0.256002
 30
0
  0
VERTEX
  8
72_ARTEK_AKFURNITURE_D2_CH_BAC
 10
0.339959
 20
0.254049
 30
0
  0
VERTEX
  8
72_ARTEK_AKFURNITURE_D2_CH_BAC
 10
0.365733
 20
0.250569
 30
0
  0
VERTEX
  8
72_ARTEK_AKFURNITURE_D2_CH_BAC
 10
0.39122
 20
0.245402
 30
0
  0
VERTEX
  8
72_ARTEK_AKFURNITURE_D2_CH_BAC
 10
0.416263
 20
0.238394
 30
0
  0
VERTEX
  8
72_ARTEK_AKFURNITURE_D2_CH_BAC
 10
0.440668
 20
0.229415
 30
0
  0
VERTEX
  8
72_ARTEK_AKFURNITURE_D2_CH_BAC
 10
0.464206
 20
0.218367
 30
0
  0
VERTEX
  8
72_ARTEK_AKFURNITURE_D2_CH_BAC
 10
0.475465
 20
0.211863
 30
0
  0
VERTEX
  8
72_ARTEK_AKFURNITURE_D2_CH_BAC
 10
0.486191
 20
0.204514
 30
0
  0
VERTEX
  8
72_ARTEK_AKFURNITURE_D2_CH_BAC
 10
0.496199
 20
0.196217
 30
0
  0
VERTEX
  8
72_ARTEK_AKFURNITURE_D2_CH_BAC
 10
0.505338
 20
0.18697
 30
0
  0
VERTEX
  8
72_ARTEK_AKFURNITURE_D2_CH_BAC
 10
0.513029
 20
0.176524
 30
0
  0
VERTEX
  8
72_ARTEK_AKFURNITURE_D2_CH_BAC
 10
0.515417
 20
0.170492
 30
0
  0
VERTEX
  8
72_ARTEK_AKFURNITURE_D2_CH_BAC
 10
0.516283
 20
0.164061
 30
0
  0
VERTEX
  8
72_ARTEK_AKFURNITURE_D2_CH_BAC
 10
0.515849
 20
0.157583
 30
0
  0
VERTEX
  8
72_ARTEK_AKFURNITURE_D2_CH_BAC
 10
0.514352
 20
0.151261
 30
0
  0
VERTEX
  8
72_ARTEK_AKFURNITURE_D2_CH_BAC
 10
0.511922
 20
0.145236
 30
0
  0
VERTEX
  8
72_ARTEK_AKFURNITURE_D2_CH_BAC
 10
0.508639
 20
0.13963
 30
0
  0
VERTEX
  8
72_ARTEK_AKFURNITURE_D2_CH_BAC
 10
0.504316
 20
0.134805
 30
0
  0
VERTEX
  8
72_ARTEK_AKFURNITURE_D2_CH_BAC
 10
0.501513
 20
0.133184
 30
0
  0
VERTEX
  8
72_ARTEK_AKFURNITURE_D2_CH_BAC
 10
0.499925
 20
0.132855
 30
0
  0
VERTEX
  8
72_ARTEK_AKFURNITURE_D2_CH_BAC
 10
0.499115
 20
0.132791
 30
0
  0
VERTEX
  8
72_ARTEK_AKFURNITURE_D2_CH_BAC
 10
0.499641
 20
0.132826
 30
0
  0
VERTEX
  8
72_ARTEK_AKFURNITURE_D2_CH_BAC
 10
0.50278
 20
0.133614
 30
0
  0
VERTEX
  8
72_ARTEK_AKFURNITURE_D2_CH_BAC
 10
0.505527
 20
0.135336
 30
0
  0
VERTEX
  8
72_ARTEK_AKFURNITURE_D2_CH_BAC
 10
0.509897
 20
0.140126
 30
0
  0
VERTEX
  8
72_ARTEK_AKFURNITURE_D2_CH_BAC
 10
0.516324
 20
0.151387
 30
0
  0
VERTEX
  8
72_ARTEK_AKFURNITURE_D2_CH_BAC
 10
0.518202
 20
0.157608
 30
0
  0
VERTEX
  8
72_ARTEK_AKFURNITURE_D2_CH_BAC
 10
0.518842
 20
0.160795
 30
0
  0
VERTEX
  8
72_ARTEK_AKFURNITURE_D2_CH_BAC
 10
0.519241
 20
0.16512
 30
0
  0
VERTEX
  8
72_ARTEK_AKFURNITURE_D2_CH_BAC
 10
0.519436
 20
0.170214
 30
0
  0
VERTEX
  8
72_ARTEK_AKFURNITURE_D2_CH_BAC
 10
0.519197
 20
0.173427
 30
0
  0
VERTEX
  8
72_ARTEK_AKFURNITURE_D2_CH_BAC
 10
0.518044
 20
0.177585
 30
0
  0
VERTEX
  8
72_ARTEK_AKFURNITURE_D2_CH_BAC
 10
0.513101
 20
0.186311
 30
0
  0
VERTEX
  8
72_ARTEK_AKFURNITURE_D2_CH_BAC
 10
0.510994
 20
0.189005
 30
0
  0
VERTEX
  8
72_ARTEK_AKFURNITURE_D2_CH_BAC
 10
0.509424
 20
0.190832
 30
0
  0
VERTEX
  8
72_ARTEK_AKFURNITURE_D2_CH_BAC
 10
0.506201
 20
0.194329
 30
0
  0
VERTEX
  8
72_ARTEK_AKFURNITURE_D2_CH_BAC
 10
0.502003
 20
0.198595
 30
0
  0
VERTEX
  8
72_ARTEK_AKFURNITURE_D2_CH_BAC
 10
0.496951
 20
0.203235
 30
0
  0
VERTEX
  8
72_ARTEK_AKFURNITURE_D2_CH_BAC
 10
0.486166
 20
0.211708
 30
0
  0
VERTEX
  8
72_ARTEK_AKFURNITURE_D2_CH_BAC
 10
0.474635
 20
0.219136
 30
0
  0
VERTEX
  8
72_ARTEK_AKFURNITURE_D2_CH_BAC
 10
0.462539
 20
0.225613
 30
0
  0
VERTEX
  8
72_ARTEK_AKFURNITURE_D2_CH_BAC
 10
0.437485
 20
0.236775
 30
0
  0
VERTEX
  8
72_ARTEK_AKFURNITURE_D2_CH_BAC
 10
0.411613
 20
0.245889
 30
0
  0
VERTEX
  8
72_ARTEK_AKFURNITURE_D2_CH_BAC
 10
0.385054
 20
0.252764
 30
0
  0
VERTEX
  8
72_ARTEK_AKFURNITURE_D2_CH_BAC
 10
0.358054
 20
0.257642
 30
0
  0
VERTEX
  8
72_ARTEK_AKFURNITURE_D2_CH_BAC
 10
0.330789
 20
0.260711
 30
0
  0
VERTEX
  8
72_ARTEK_AKFURNITURE_D2_CH_BAC
 10
0.303388
 20
0.262169
 30
0
  0
SEQEND
  0
POLYLINE
  8
72_ARTEK_AKFURNITURE_D2SNAP
 66
     1
 70
     0
 10
0.0
 20
0.0
 30
0.0
  0
VERTEX
  8
72_ARTEK_AKFURNITURE_D2SNAP
 10
0.3016
 20
-0
 30
0
  0
VERTEX
  8
72_ARTEK_AKFURNITURE_D2SNAP
 10
0.30136
 20
0.00243863
 30
0
  0
VERTEX
  8
72_ARTEK_AKFURNITURE_D2SNAP
 10
0.300648
 20
0.00478354
 30
0
  0
VERTEX
  8
72_ARTEK_AKFURNITURE_D2SNAP
 10
0.299493
 20
0.00694463
 30
0
  0
VERTEX
  8
72_ARTEK_AKFURNITURE_D2SNAP
 10
0.297939
 20
0.00883883
 30
0
  0
VERTEX
  8
72_ARTEK_AKFURNITURE_D2SNAP
 10
0.296045
 20
0.0103934
 30
0
  0
VERTEX
  8
72_ARTEK_AKFURNITURE_D2SNAP
 10
0.293884
 20
0.0115485
 30
0
  0
VERTEX
  8
72_ARTEK_AKFURNITURE_D2SNAP
 10
0.291539
 20
0.0122598
 30
0
  0
VERTEX
  8
72_ARTEK_AKFURNITURE_D2SNAP
 10
0.2891
 20
0.0125
 30
0
  0
VERTEX
  8
72_ARTEK_AKFURNITURE_D2SNAP
 10
0.286661
 20
0.0122598
 30
0
  0
VERTEX
  8
72_ARTEK_AKFURNITURE_D2SNAP
 10
0.284316
 20
0.0115485
 30
0
  0
VERTEX
  8
72_ARTEK_AKFURNITURE_D2SNAP
 10
0.282155
 20
0.0103934
 30
0
  0
VERTEX
  8
72_ARTEK_AKFURNITURE_D2SNAP
 10
0.280261
 20
0.00883883
 30
0
  0
VERTEX
  8
72_ARTEK_AKFURNITURE_D2SNAP
 10
0.278707
 20
0.00694463
 30
0
  0
VERTEX
  8
72_ARTEK_AKFURNITURE_D2SNAP
 10
0.277552
 20
0.00478354
 30
0
  0
VERTEX
  8
72_ARTEK_AKFURNITURE_D2SNAP
 10
0.27684
 20
0.00243863
 30
0
  0
VERTEX
  8
72_ARTEK_AKFURNITURE_D2SNAP
 10
0.2766
 20
3.15316e-018
 30
0
  0
VERTEX
  8
72_ARTEK_AKFURNITURE_D2SNAP
 10
0.27684
 20
-0.00243863
 30
0
  0
VERTEX
  8
72_ARTEK_AKFURNITURE_D2SNAP
 10
0.277552
 20
-0.00478354
 30
0
  0
VERTEX
  8
72_ARTEK_AKFURNITURE_D2SNAP
 10
0.278707
 20
-0.00694463
 30
0
  0
VERTEX
  8
72_ARTEK_AKFURNITURE_D2SNAP
 10
0.280261
 20
-0.00883883
 30
0
  0
VERTEX
  8
72_ARTEK_AKFURNITURE_D2SNAP
 10
0.282155
 20
-0.0103934
 30
0
  0
VERTEX
  8
72_ARTEK_AKFURNITURE_D2SNAP
 10
0.284316
 20
-0.0115485
 30
0
  0
VERTEX
  8
72_ARTEK_AKFURNITURE_D2SNAP
 10
0.286661
 20
-0.0122598
 30
0
  0
VERTEX
  8
72_ARTEK_AKFURNITURE_D2SNAP
 10
0.2891
 20
-0.0125
 30
0
  0
VERTEX
  8
72_ARTEK_AKFURNITURE_D2SNAP
 10
0.291539
 20
-0.0122598
 30
0
  0
VERTEX
  8
72_ARTEK_AKFURNITURE_D2SNAP
 10
0.293884
 20
-0.0115485
 30
0
  0
VERTEX
  8
72_ARTEK_AKFURNITURE_D2SNAP
 10
0.296045
 20
-0.0103934
 30
0
  0
VERTEX
  8
72_ARTEK_AKFURNITURE_D2SNAP
 10
0.297939
 20
-0.00883883
 30
0
  0
VERTEX
  8
72_ARTEK_AKFURNITURE_D2SNAP
 10
0.299493
 20
-0.00694463
 30
0
  0
VERTEX
  8
72_ARTEK_AKFURNITURE_D2SNAP
 10
0.300648
 20
-0.00478354
 30
0
  0
VERTEX
  8
72_ARTEK_AKFURNITURE_D2SNAP
 10
0.30136
 20
-0.00243863
 30
0
  0
VERTEX
  8
72_ARTEK_AKFURNITURE_D2SNAP
 10
0.3016
 20
-0
 30
0
  0
SEQEND
  0
POLYLINE
  8
72_ARTEK_AKFURNITURE_D2SNAP
 66
     1
 70
     0
 10
0.0
 20
0.0
 30
0.0
  0
VERTEX
  8
72_ARTEK_AKFURNITURE_D2SNAP
 10
0.271422
 20
-0.0176777
 30
0
  0
VERTEX
  8
72_ARTEK_AKFURNITURE_D2SNAP
 10
0.306778
 20
0.0176777
 30
0
  0
SEQEND
  0
POLYLINE
  8
72_ARTEK_AKFURNITURE_D2SNAP
 66
     1
 70
     0
 10
0.0
 20
0.0
 30
0.0
  0
VERTEX
  8
72_ARTEK_AKFURNITURE_D2SNAP
 10
0.271422
 20
0.0176777
 30
0
  0
VERTEX
  8
72_ARTEK_AKFURNITURE_D2SNAP
 10
0.306778
 20
-0.0176777
 30
0
  0
SEQEND
  0
POLYLINE
  8
72_ARTEK_AKFURNITURE_D2_CH_FOO
 66
     1
 70
     0
 10
0.0
 20
0.0
 30
0.0
  0
VERTEX
  8
72_ARTEK_AKFURNITURE_D2_CH_FOO
 10
0.527177
 20
0.186567
 30
0
  0
VERTEX
  8
72_ARTEK_AKFURNITURE_D2_CH_FOO
 10
0.52854
 20
0.18579
 30
0
  0
VERTEX
  8
72_ARTEK_AKFURNITURE_D2_CH_FOO
 10
0.530001
 20
0.184894
 30
0
  0
VERTEX
  8
72_ARTEK_AKFURNITURE_D2_CH_FOO
 10
0.531568
 20
0.183871
 30
0
  0
VERTEX
  8
72_ARTEK_AKFURNITURE_D2_CH_FOO
 10
0.533242
 20
0.18272
 30
0
  0
VERTEX
  8
72_ARTEK_AKFURNITURE_D2_CH_FOO
 10
0.536749
 20
0.180172
 30
0
  0
VERTEX
  8
72_ARTEK_AKFURNITURE_D2_CH_FOO
 10
0.538364
 20
0.17896
 30
0
  0
VERTEX
  8
72_ARTEK_AKFURNITURE_D2_CH_FOO
 10
0.539862
 20
0.177812
 30
0
  0
VERTEX
  8
72_ARTEK_AKFURNITURE_D2_CH_FOO
 10
0.541243
 20
0.176727
 30
0
  0
VERTEX
  8
72_ARTEK_AKFURNITURE_D2_CH_FOO
 10
0.542539
 20
0.175688
 30
0
  0
VERTEX
  8
72_ARTEK_AKFURNITURE_D2_CH_FOO
 10
0.545124
 20
0.173613
 30
0
  0
VERTEX
  8
72_ARTEK_AKFURNITURE_D2_CH_FOO
 10
0.547708
 20
0.171539
 30
0
  0
VERTEX
  8
72_ARTEK_AKFURNITURE_D2_CH_FOO
 10
0.548989
 20
0.170499
 30
0
  0
VERTEX
  8
72_ARTEK_AKFURNITURE_D2_CH_FOO
 10
0.550202
 20
0.169444
 30
0
  0
VERTEX
  8
72_ARTEK_AKFURNITURE_D2_CH_FOO
 10
0.551341
 20
0.168372
 30
0
  0
VERTEX
  8
72_ARTEK_AKFURNITURE_D2_CH_FOO
 10
0.552406
 20
0.167283
 30
0
  0
VERTEX
  8
72_ARTEK_AKFURNITURE_D2_CH_FOO
 10
0.553397
 20
0.166177
 30
0
  0
VERTEX
  8
72_ARTEK_AKFURNITURE_D2_CH_FOO
 10
0.554313
 20
0.165055
 30
0
  0
VERTEX
  8
72_ARTEK_AKFURNITURE_D2_CH_FOO
 10
0.556022
 20
0.162782
 30
0
  0
VERTEX
  8
72_ARTEK_AKFURNITURE_D2_CH_FOO
 10
0.556448
 20
0.162214
 30
0
  0
VERTEX
  8
72_ARTEK_AKFURNITURE_D2_CH_FOO
 10
0.556554
 20
0.162072
 30
0
  0
VERTEX
  8
72_ARTEK_AKFURNITURE_D2_CH_FOO
 10
0.5566
 20
0.162024
 30
0
  0
VERTEX
  8
72_ARTEK_AKFURNITURE_D2_CH_FOO
 10
0.5566
 20
0.162113
 30
0
  0
VERTEX
  8
72_ARTEK_AKFURNITURE_D2_CH_FOO
 10
0.5566
 20
0.162468
 30
0
  0
VERTEX
  8
72_ARTEK_AKFURNITURE_D2_CH_FOO
 10
0.556598
 20
0.163889
 30
0
  0
VERTEX
  8
72_ARTEK_AKFURNITURE_D2_CH_FOO
 10
0.556588
 20
0.175255
 30
0
  0
VERTEX
  8
72_ARTEK_AKFURNITURE_D2_CH_FOO
 10
0.556583
 20
0.180937
 30
0
  0
VERTEX
  8
72_ARTEK_AKFURNITURE_D2_CH_FOO
 10
0.556575
 20
0.183779
 30
0
  0
VERTEX
  8
72_ARTEK_AKFURNITURE_D2_CH_FOO
 10
0.556496
 20
0.185197
 30
0
  0
VERTEX
  8
72_ARTEK_AKFURNITURE_D2_CH_FOO
 10
0.556269
 20
0.186598
 30
0
  0
VERTEX
  8
72_ARTEK_AKFURNITURE_D2_CH_FOO
 10
0.556069
 20
0.18728
 30
0
  0
VERTEX
  8
72_ARTEK_AKFURNITURE_D2_CH_FOO
 10
0.555799
 20
0.187936
 30
0
  0
VERTEX
  8
72_ARTEK_AKFURNITURE_D2_CH_FOO
 10
0.555452
 20
0.188556
 30
0
  0
VERTEX
  8
72_ARTEK_AKFURNITURE_D2_CH_FOO
 10
0.55503
 20
0.189126
 30
0
  0
VERTEX
  8
72_ARTEK_AKFURNITURE_D2_CH_FOO
 10
0.554519
 20
0.189619
 30
0
  0
VERTEX
  8
72_ARTEK_AKFURNITURE_D2_CH_FOO
 10
0.553956
 20
0.190051
 30
0
  0
VERTEX
  8
72_ARTEK_AKFURNITURE_D2_CH_FOO
 10
0.552741
 20
0.190786
 30
0
  0
VERTEX
  8
72_ARTEK_AKFURNITURE_D2_CH_FOO
 10
0.551453
 20
0.191383
 30
0
  0
VERTEX
  8
72_ARTEK_AKFURNITURE_D2_CH_FOO
 10
0.550784
 20
0.191623
 30
0
  0
VERTEX
  8
72_ARTEK_AKFURNITURE_D2_CH_FOO
 10
0.550097
 20
0.191803
 30
0
  0
VERTEX
  8
72_ARTEK_AKFURNITURE_D2_CH_FOO
 10
0.54731
 20
0.192355
 30
0
  0
VERTEX
  8
72_ARTEK_AKFURNITURE_D2_CH_FOO
 10
0.544499
 20
0.192766
 30
0
  0
VERTEX
  8
72_ARTEK_AKFURNITURE_D2_CH_FOO
 10
0.541669
 20
0.193007
 30
0
  0
VERTEX
  8
72_ARTEK_AKFURNITURE_D2_CH_FOO
 10
0.538829
 20
0.193032
 30
0
  0
VERTEX
  8
72_ARTEK_AKFURNITURE_D2_CH_FOO
 10
0.537411
 20
0.192943
 30
0
  0
VERTEX
  8
72_ARTEK_AKFURNITURE_D2_CH_FOO
 10
0.536001
 20
0.192771
 30
0
  0
VERTEX
  8
72_ARTEK_AKFURNITURE_D2_CH_FOO
 10
0.534606
 20
0.192501
 30
0
  0
VERTEX
  8
72_ARTEK_AKFURNITURE_D2_CH_FOO
 10
0.533239
 20
0.192118
 30
0
  0
VERTEX
  8
72_ARTEK_AKFURNITURE_D2_CH_FOO
 10
0.53192
 20
0.191591
 30
0
  0
VERTEX
  8
72_ARTEK_AKFURNITURE_D2_CH_FOO
 10
0.530679
 20
0.190904
 30
0
  0
VERTEX
  8
72_ARTEK_AKFURNITURE_D2_CH_FOO
 10
0.530093
 20
0.190502
 30
0
  0
VERTEX
  8
72_ARTEK_AKFURNITURE_D2_CH_FOO
 10
0.529548
 20
0.190049
 30
0
  0
VERTEX
  8
72_ARTEK_AKFURNITURE_D2_CH_FOO
 10
0.529021
 20
0.189572
 30
0
  0
VERTEX
  8
72_ARTEK_AKFURNITURE_D2_CH_FOO
 10
0.528567
 20
0.189026
 30
0
  0
VERTEX
  8
72_ARTEK_AKFURNITURE_D2_CH_FOO
 10
0.528135
 20
0.188464
 30
0
  0
VERTEX
  8
72_ARTEK_AKFURNITURE_D2_CH_FOO
 10
0.527771
 20
0.187854
 30
0
  0
VERTEX
  8
72_ARTEK_AKFURNITURE_D2_CH_FOO
 10
0.527447
 20
0.187224
 30
0
  0
VERTEX
  8
72_ARTEK_AKFURNITURE_D2_CH_FOO
 10
0.527177
 20
0.186567
 30
0
  0
SEQEND
  0
POLYLINE
  8
72_ARTEK_AKFURNITURE_D2_CH_FOO
 66
     1
 70
     0
 10
0.0
 20
0.0
 30
0.0
  0
VERTEX
  8
72_ARTEK_AKFURNITURE_D2_CH_FOO
 10
0.0512467
 20
0.186691
 30
0
  0
VERTEX
  8
72_ARTEK_AKFURNITURE_D2_CH_FOO
 10
0.0498888
 20
0.185925
 30
0
  0
VERTEX
  8
72_ARTEK_AKFURNITURE_D2_CH_FOO
 10
0.0484403
 20
0.185046
 30
0
  0
VERTEX
  8
72_ARTEK_AKFURNITURE_D2_CH_FOO
 10
0.046885
 20
0.18404
 30
0
  0
VERTEX
  8
72_ARTEK_AKFURNITURE_D2_CH_FOO
 10
0.045223
 20
0.182905
 30
0
  0
VERTEX
  8
72_ARTEK_AKFURNITURE_D2_CH_FOO
 10
0.0416997
 20
0.180356
 30
0
  0
VERTEX
  8
72_ARTEK_AKFURNITURE_D2_CH_FOO
 10
0.0400626
 20
0.179132
 30
0
  0
VERTEX
  8
72_ARTEK_AKFURNITURE_D2_CH_FOO
 10
0.0385432
 20
0.177971
 30
0
  0
VERTEX
  8
72_ARTEK_AKFURNITURE_D2_CH_FOO
 10
0.0371414
 20
0.176874
 30
0
  0
VERTEX
  8
72_ARTEK_AKFURNITURE_D2_CH_FOO
 10
0.0358359
 20
0.175828
 30
0
  0
VERTEX
  8
72_ARTEK_AKFURNITURE_D2_CH_FOO
 10
0.0332436
 20
0.173748
 30
0
  0
VERTEX
  8
72_ARTEK_AKFURNITURE_D2_CH_FOO
 10
0.0306513
 20
0.171667
 30
0
  0
VERTEX
  8
72_ARTEK_AKFURNITURE_D2_CH_FOO
 10
0.0293622
 20
0.170624
 30
0
  0
VERTEX
  8
72_ARTEK_AKFURNITURE_D2_CH_FOO
 10
0.028136
 20
0.169568
 30
0
  0
VERTEX
  8
72_ARTEK_AKFURNITURE_D2_CH_FOO
 10
0.0269847
 20
0.168495
 30
0
  0
VERTEX
  8
72_ARTEK_AKFURNITURE_D2_CH_FOO
 10
0.0259081
 20
0.167405
 30
0
  0
VERTEX
  8
72_ARTEK_AKFURNITURE_D2_CH_FOO
 10
0.0249065
 20
0.166298
 30
0
  0
VERTEX
  8
72_ARTEK_AKFURNITURE_D2_CH_FOO
 10
0.0239796
 20
0.165174
 30
0
  0
VERTEX
  8
72_ARTEK_AKFURNITURE_D2_CH_FOO
 10
0.0222622
 20
0.162895
 30
0
  0
VERTEX
  8
72_ARTEK_AKFURNITURE_D2_CH_FOO
 10
0.0218349
 20
0.162325
 30
0
  0
VERTEX
  8
72_ARTEK_AKFURNITURE_D2_CH_FOO
 10
0.0216212
 20
0.162039
 30
0
  0
VERTEX
  8
72_ARTEK_AKFURNITURE_D2_CH_FOO
 10
0.0216
 20
0.16202
 30
0
  0
VERTEX
  8
72_ARTEK_AKFURNITURE_D2_CH_FOO
 10
0.0216
 20
0.162065
 30
0
  0
VERTEX
  8
72_ARTEK_AKFURNITURE_D2_CH_FOO
 10
0.0216001
 20
0.162154
 30
0
  0
VERTEX
  8
72_ARTEK_AKFURNITURE_D2_CH_FOO
 10
0.0216003
 20
0.162332
 30
0
  0
VERTEX
  8
72_ARTEK_AKFURNITURE_D2_CH_FOO
 10
0.0216016
 20
0.163757
 30
0
  0
VERTEX
  8
72_ARTEK_AKFURNITURE_D2_CH_FOO
 10
0.0216121
 20
0.175158
 30
0
  0
VERTEX
  8
72_ARTEK_AKFURNITURE_D2_CH_FOO
 10
0.0216173
 20
0.180858
 30
0
  0
VERTEX
  8
72_ARTEK_AKFURNITURE_D2_CH_FOO
 10
0.0216235
 20
0.183708
 30
0
  0
VERTEX
  8
72_ARTEK_AKFURNITURE_D2_CH_FOO
 10
0.0216977
 20
0.185131
 30
0
  0
VERTEX
  8
72_ARTEK_AKFURNITURE_D2_CH_FOO
 10
0.0219169
 20
0.186538
 30
0
  0
VERTEX
  8
72_ARTEK_AKFURNITURE_D2_CH_FOO
 10
0.0221105
 20
0.187224
 30
0
  0
VERTEX
  8
72_ARTEK_AKFURNITURE_D2_CH_FOO
 10
0.0223768
 20
0.187884
 30
0
  0
VERTEX
  8
72_ARTEK_AKFURNITURE_D2_CH_FOO
 10
0.022717
 20
0.18851
 30
0
  0
VERTEX
  8
72_ARTEK_AKFURNITURE_D2_CH_FOO
 10
0.0231361
 20
0.189085
 30
0
  0
VERTEX
  8
72_ARTEK_AKFURNITURE_D2_CH_FOO
 10
0.0236418
 20
0.189586
 30
0
  0
VERTEX
  8
72_ARTEK_AKFURNITURE_D2_CH_FOO
 10
0.0242048
 20
0.190022
 30
0
  0
VERTEX
  8
72_ARTEK_AKFURNITURE_D2_CH_FOO
 10
0.02542
 20
0.190765
 30
0
  0
VERTEX
  8
72_ARTEK_AKFURNITURE_D2_CH_FOO
 10
0.0267099
 20
0.191369
 30
0
  0
VERTEX
  8
72_ARTEK_AKFURNITURE_D2_CH_FOO
 10
0.0280677
 20
0.191796
 30
0
  0
VERTEX
  8
72_ARTEK_AKFURNITURE_D2_CH_FOO
 10
0.0308631
 20
0.19235
 30
0
  0
VERTEX
  8
72_ARTEK_AKFURNITURE_D2_CH_FOO
 10
0.0336826
 20
0.192764
 30
0
  0
VERTEX
  8
72_ARTEK_AKFURNITURE_D2_CH_FOO
 10
0.0365218
 20
0.193007
 30
0
  0
VERTEX
  8
72_ARTEK_AKFURNITURE_D2_CH_FOO
 10
0.0393619
 20
0.192784
 30
0
  0
VERTEX
  8
72_ARTEK_AKFURNITURE_D2_CH_FOO
 10
0.0421825
 20
0.192377
 30
0
  0
VERTEX
  8
72_ARTEK_AKFURNITURE_D2_CH_FOO
 10
0.0449791
 20
0.191829
 30
0
  0
VERTEX
  8
72_ARTEK_AKFURNITURE_D2_CH_FOO
 10
0.0456708
 20
0.191658
 30
0
  0
VERTEX
  8
72_ARTEK_AKFURNITURE_D2_CH_FOO
 10
0.046344
 20
0.191426
 30
0
  0
VERTEX
  8
72_ARTEK_AKFURNITURE_D2_CH_FOO
 10
0.0476416
 20
0.190838
 30
0
  0
VERTEX
  8
72_ARTEK_AKFURNITURE_D2_CH_FOO
 10
0.0488663
 20
0.190111
 30
0
  0
VERTEX
  8
72_ARTEK_AKFURNITURE_D2_CH_FOO
 10
0.0494383
 20
0.189687
 30
0
  0
VERTEX
  8
72_ARTEK_AKFURNITURE_D2_CH_FOO
 10
0.0499605
 20
0.189203
 30
0
  0
VERTEX
  8
72_ARTEK_AKFURNITURE_D2_CH_FOO
 10
0.0503962
 20
0.18864
 30
0
  0
VERTEX
  8
72_ARTEK_AKFURNITURE_D2_CH_FOO
 10
0.0507555
 20
0.188025
 30
0
  0
VERTEX
  8
72_ARTEK_AKFURNITURE_D2_CH_FOO
 10
0.0510364
 20
0.187371
 30
0
  0
VERTEX
  8
72_ARTEK_AKFURNITURE_D2_CH_FOO
 10
0.0512467
 20
0.186691
 30
0
  0
SEQEND
  0
POLYLINE
  8
72_ARTEK_AKFURNITURE_D2_CH_FOO
 66
     1
 70
     0
 10
0.0
 20
0.0
 30
0.0
  0
VERTEX
  8
72_ARTEK_AKFURNITURE_D2_CH_FOO
 10
0.526953
 20
0.186691
 30
0
  0
VERTEX
  8
72_ARTEK_AKFURNITURE_D2_CH_FOO
 10
0.528311
 20
0.185925
 30
0
  0
VERTEX
  8
72_ARTEK_AKFURNITURE_D2_CH_FOO
 10
0.52976
 20
0.185046
 30
0
  0
VERTEX
  8
72_ARTEK_AKFURNITURE_D2_CH_FOO
 10
0.531315
 20
0.18404
 30
0
  0
VERTEX
  8
72_ARTEK_AKFURNITURE_D2_CH_FOO
 10
0.532977
 20
0.182905
 30
0
  0
VERTEX
  8
72_ARTEK_AKFURNITURE_D2_CH_FOO
 10
0.5365
 20
0.180356
 30
0
  0
VERTEX
  8
72_ARTEK_AKFURNITURE_D2_CH_FOO
 10
0.538137
 20
0.179132
 30
0
  0
VERTEX
  8
72_ARTEK_AKFURNITURE_D2_CH_FOO
 10
0.539657
 20
0.177971
 30
0
  0
VERTEX
  8
72_ARTEK_AKFURNITURE_D2_CH_FOO
 10
0.541059
 20
0.176874
 30
0
  0
VERTEX
  8
72_ARTEK_AKFURNITURE_D2_CH_FOO
 10
0.542364
 20
0.175828
 30
0
  0
VERTEX
  8
72_ARTEK_AKFURNITURE_D2_CH_FOO
 10
0.544956
 20
0.173748
 30
0
  0
VERTEX
  8
72_ARTEK_AKFURNITURE_D2_CH_FOO
 10
0.547549
 20
0.171667
 30
0
  0
VERTEX
  8
72_ARTEK_AKFURNITURE_D2_CH_FOO
 10
0.548838
 20
0.170624
 30
0
  0
VERTEX
  8
72_ARTEK_AKFURNITURE_D2_CH_FOO
 10
0.550064
 20
0.169568
 30
0
  0
VERTEX
  8
72_ARTEK_AKFURNITURE_D2_CH_FOO
 10
0.551215
 20
0.168495
 30
0
  0
VERTEX
  8
72_ARTEK_AKFURNITURE_D2_CH_FOO
 10
0.552292
 20
0.167405
 30
0
  0
VERTEX
  8
72_ARTEK_AKFURNITURE_D2_CH_FOO
 10
0.553293
 20
0.166298
 30
0
  0
VERTEX
  8
72_ARTEK_AKFURNITURE_D2_CH_FOO
 10
0.55422
 20
0.165174
 30
0
  0
VERTEX
  8
72_ARTEK_AKFURNITURE_D2_CH_FOO
 10
0.555938
 20
0.162895
 30
0
  0
VERTEX
  8
72_ARTEK_AKFURNITURE_D2_CH_FOO
 10
0.556365
 20
0.162325
 30
0
  0
VERTEX
  8
72_ARTEK_AKFURNITURE_D2_CH_FOO
 10
0.556579
 20
0.162039
 30
0
  0
VERTEX
  8
72_ARTEK_AKFURNITURE_D2_CH_FOO
 10
0.5566
 20
0.16202
 30
0
  0
VERTEX
  8
72_ARTEK_AKFURNITURE_D2_CH_FOO
 10
0.5566
 20
0.162065
 30
0
  0
VERTEX
  8
72_ARTEK_AKFURNITURE_D2_CH_FOO
 10
0.5566
 20
0.162154
 30
0
  0
VERTEX
  8
72_ARTEK_AKFURNITURE_D2_CH_FOO
 10
0.5566
 20
0.162332
 30
0
  0
VERTEX
  8
72_ARTEK_AKFURNITURE_D2_CH_FOO
 10
0.556598
 20
0.163757
 30
0
  0
VERTEX
  8
72_ARTEK_AKFURNITURE_D2_CH_FOO
 10
0.556588
 20
0.175158
 30
0
  0
VERTEX
  8
72_ARTEK_AKFURNITURE_D2_CH_FOO
 10
0.556583
 20
0.180858
 30
0
  0
VERTEX
  8
72_ARTEK_AKFURNITURE_D2_CH_FOO
 10
0.556576
 20
0.183708
 30
0
  0
VERTEX
  8
72_ARTEK_AKFURNITURE_D2_CH_FOO
 10
0.556502
 20
0.185131
 30
0
  0
VERTEX
  8
72_ARTEK_AKFURNITURE_D2_CH_FOO
 10
0.556283
 20
0.186538
 30
0
  0
VERTEX
  8
72_ARTEK_AKFURNITURE_D2_CH_FOO
 10
0.556089
 20
0.187224
 30
0
  0
VERTEX
  8
72_ARTEK_AKFURNITURE_D2_CH_FOO
 10
0.555823
 20
0.187884
 30
0
  0
VERTEX
  8
72_ARTEK_AKFURNITURE_D2_CH_FOO
 10
0.555483
 20
0.18851
 30
0
  0
VERTEX
  8
72_ARTEK_AKFURNITURE_D2_CH_FOO
 10
0.555064
 20
0.189085
 30
0
  0
VERTEX
  8
72_ARTEK_AKFURNITURE_D2_CH_FOO
 10
0.554558
 20
0.189586
 30
0
  0
VERTEX
  8
72_ARTEK_AKFURNITURE_D2_CH_FOO
 10
0.553995
 20
0.190022
 30
0
  0
VERTEX
  8
72_ARTEK_AKFURNITURE_D2_CH_FOO
 10
0.55278
 20
0.190765
 30
0
  0
VERTEX
  8
72_ARTEK_AKFURNITURE_D2_CH_FOO
 10
0.55149
 20
0.191369
 30
0
  0
VERTEX
  8
72_ARTEK_AKFURNITURE_D2_CH_FOO
 10
0.550132
 20
0.191796
 30
0
  0
VERTEX
  8
72_ARTEK_AKFURNITURE_D2_CH_FOO
 10
0.547337
 20
0.19235
 30
0
  0
VERTEX
  8
72_ARTEK_AKFURNITURE_D2_CH_FOO
 10
0.544517
 20
0.192764
 30
0
  0
VERTEX
  8
72_ARTEK_AKFURNITURE_D2_CH_FOO
 10
0.541678
 20
0.193007
 30
0
  0
VERTEX
  8
72_ARTEK_AKFURNITURE_D2_CH_FOO
 10
0.538838
 20
0.192784
 30
0
  0
VERTEX
  8
72_ARTEK_AKFURNITURE_D2_CH_FOO
 10
0.536017
 20
0.192377
 30
0
  0
VERTEX
  8
72_ARTEK_AKFURNITURE_D2_CH_FOO
 10
0.533221
 20
0.191829
 30
0
  0
VERTEX
  8
72_ARTEK_AKFURNITURE_D2_CH_FOO
 10
0.532529
 20
0.191658
 30
0
  0
VERTEX
  8
72_ARTEK_AKFURNITURE_D2_CH_FOO
 10
0.531856
 20
0.191426
 30
0
  0
VERTEX
  8
72_ARTEK_AKFURNITURE_D2_CH_FOO
 10
0.530558
 20
0.190838
 30
0
  0
VERTEX
  8
72_ARTEK_AKFURNITURE_D2_CH_FOO
 10
0.529334
 20
0.190111
 30
0
  0
VERTEX
  8
72_ARTEK_AKFURNITURE_D2_CH_FOO
 10
0.528762
 20
0.189687
 30
0
  0
VERTEX
  8
72_ARTEK_AKFURNITURE_D2_CH_FOO
 10
0.528239
 20
0.189203
 30
0
  0
VERTEX
  8
72_ARTEK_AKFURNITURE_D2_CH_FOO
 10
0.527804
 20
0.18864
 30
0
  0
VERTEX
  8
72_ARTEK_AKFURNITURE_D2_CH_FOO
 10
0.527444
 20
0.188025
 30
0
  0
VERTEX
  8
72_ARTEK_AKFURNITURE_D2_CH_FOO
 10
0.527164
 20
0.187371
 30
0
  0
VERTEX
  8
72_ARTEK_AKFURNITURE_D2_CH_FOO
 10
0.526953
 20
0.186691
 30
0
  0
SEQEND
  0
POLYLINE
  8
72_ARTEK_AKFURNITURE_D2SNAP
 66
     1
 70
     0
 10
0.0
 20
0.0
 30
0.0
  0
VERTEX
  8
72_ARTEK_AKFURNITURE_D2SNAP
 10
0.3016
 20
-0
 30
0
  0
VERTEX
  8
72_ARTEK_AKFURNITURE_D2SNAP
 10
0.30136
 20
0.00243863
 30
0
  0
VERTEX
  8
72_ARTEK_AKFURNITURE_D2SNAP
 10
0.300648
 20
0.00478354
 30
0
  0
VERTEX
  8
72_ARTEK_AKFURNITURE_D2SNAP
 10
0.299493
 20
0.00694463
 30
0
  0
VERTEX
  8
72_ARTEK_AKFURNITURE_D2SNAP
 10
0.297939
 20
0.00883883
 30
0
  0
VERTEX
  8
72_ARTEK_AKFURNITURE_D2SNAP
 10
0.296045
 20
0.0103934
 30
0
  0
VERTEX
  8
72_ARTEK_AKFURNITURE_D2SNAP
 10
0.293884
 20
0.0115485
 30
0
  0
VERTEX
  8
72_ARTEK_AKFURNITURE_D2SNAP
 10
0.291539
 20
0.0122598
 30
0
  0
VERTEX
  8
72_ARTEK_AKFURNITURE_D2SNAP
 10
0.2891
 20
0.0125
 30
0
  0
VERTEX
  8
72_ARTEK_AKFURNITURE_D2SNAP
 10
0.286661
 20
0.0122598
 30
0
  0
VERTEX
  8
72_ARTEK_AKFURNITURE_D2SNAP
 10
0.284316
 20
0.0115485
 30
0
  0
VERTEX
  8
72_ARTEK_AKFURNITURE_D2SNAP
 10
0.282155
 20
0.0103934
 30
0
  0
VERTEX
  8
72_ARTEK_AKFURNITURE_D2SNAP
 10
0.280261
 20
0.00883883
 30
0
  0
VERTEX
  8
72_ARTEK_AKFURNITURE_D2SNAP
 10
0.278707
 20
0.00694463
 30
0
  0
VERTEX
  8
72_ARTEK_AKFURNITURE_D2SNAP
 10
0.277552
 20
0.00478354
 30
0
  0
VERTEX
  8
72_ARTEK_AKFURNITURE_D2SNAP
 10
0.27684
 20
0.00243863
 30
0
  0
VERTEX
  8
72_ARTEK_AKFURNITURE_D2SNAP
 10
0.2766
 20
3.15316e-018
 30
0
  0
VERTEX
  8
72_ARTEK_AKFURNITURE_D2SNAP
 10
0.27684
 20
-0.00243863
 30
0
  0
VERTEX
  8
72_ARTEK_AKFURNITURE_D2SNAP
 10
0.277552
 20
-0.00478354
 30
0
  0
VERTEX
  8
72_ARTEK_AKFURNITURE_D2SNAP
 10
0.278707
 20
-0.00694463
 30
0
  0
VERTEX
  8
72_ARTEK_AKFURNITURE_D2SNAP
 10
0.280261
 20
-0.00883883
 30
0
  0
VERTEX
  8
72_ARTEK_AKFURNITURE_D2SNAP
 10
0.282155
 20
-0.0103934
 30
0
  0
VERTEX
  8
72_ARTEK_AKFURNITURE_D2SNAP
 10
0.284316
 20
-0.0115485
 30
0
  0
VERTEX
  8
72_ARTEK_AKFURNITURE_D2SNAP
 10
0.286661
 20
-0.0122598
 30
0
  0
VERTEX
  8
72_ARTEK_AKFURNITURE_D2SNAP
 10
0.2891
 20
-0.0125
 30
0
  0
VERTEX
  8
72_ARTEK_AKFURNITURE_D2SNAP
 10
0.291539
 20
-0.0122598
 30
0
  0
VERTEX
  8
72_ARTEK_AKFURNITURE_D2SNAP
 10
0.293884
 20
-0.0115485
 30
0
  0
VERTEX
  8
72_ARTEK_AKFURNITURE_D2SNAP
 10
0.296045
 20
-0.0103934
 30
0
  0
VERTEX
  8
72_ARTEK_AKFURNITURE_D2SNAP
 10
0.297939
 20
-0.00883883
 30
0
  0
VERTEX
  8
72_ARTEK_AKFURNITURE_D2SNAP
 10
0.299493
 20
-0.00694463
 30
0
  0
VERTEX
  8
72_ARTEK_AKFURNITURE_D2SNAP
 10
0.300648
 20
-0.00478354
 30
0
  0
VERTEX
  8
72_ARTEK_AKFURNITURE_D2SNAP
 10
0.30136
 20
-0.00243863
 30
0
  0
VERTEX
  8
72_ARTEK_AKFURNITURE_D2SNAP
 10
0.3016
 20
-0
 30
0
  0
SEQEND
  0
POLYLINE
  8
72_ARTEK_AKFURNITURE_D2SNAP
 66
     1
 70
     0
 10
0.0
 20
0.0
 30
0.0
  0
VERTEX
  8
72_ARTEK_AKFURNITURE_D2SNAP
 10
0.271422
 20
-0.0176777
 30
0
  0
VERTEX
  8
72_ARTEK_AKFURNITURE_D2SNAP
 10
0.306778
 20
0.0176777
 30
0
  0
SEQEND
  0
POLYLINE
  8
72_ARTEK_AKFURNITURE_D2SNAP
 66
     1
 70
     0
 10
0.0
 20
0.0
 30
0.0
  0
VERTEX
  8
72_ARTEK_AKFURNITURE_D2SNAP
 10
0.271422
 20
0.0176777
 30
0
  0
VERTEX
  8
72_ARTEK_AKFURNITURE_D2SNAP
 10
0.306778
 20
-0.0176777
 30
0
  0
SEQEND
  0
POLYLINE
  8
72_ARTEK_AKFURNITURE_D2_CH_000
 66
     1
 70
     0
 10
0.0
 20
0.0
 30
0.0
  0
VERTEX
  8
72_ARTEK_AKFURNITURE_D2_CH_000
 10
0.0512467
 20
0.186691
 30
0
  0
VERTEX
  8
72_ARTEK_AKFURNITURE_D2_CH_000
 10
0.051564
 20
0.184136
 30
0
  0
VERTEX
  8
72_ARTEK_AKFURNITURE_D2_CH_000
 10
0.0515819
 20
0.181558
 30
0
  0
VERTEX
  8
72_ARTEK_AKFURNITURE_D2_CH_000
 10
0.0515867
 20
0.1764
 30
0
  0
VERTEX
  8
72_ARTEK_AKFURNITURE_D2_CH_000
 10
0.0515962
 20
0.166085
 30
0
  0
VERTEX
  8
72_ARTEK_AKFURNITURE_D2_CH_000
 10
0.0516036
 20
0.145456
 30
0
  0
VERTEX
  8
72_ARTEK_AKFURNITURE_D2_CH_000
 10
0.0516177
 20
0.104196
 30
0
  0
VERTEX
  8
72_ARTEK_AKFURNITURE_D2_CH_000
 10
0.0516318
 20
0.0629359
 30
0
  0
VERTEX
  8
72_ARTEK_AKFURNITURE_D2_CH_000
 10
0.0516185
 20
0.052621
 30
0
  0
VERTEX
  8
72_ARTEK_AKFURNITURE_D2_CH_000
 10
0.0515988
 20
0.0474636
 30
0
  0
VERTEX
  8
72_ARTEK_AKFURNITURE_D2_CH_000
 10
0.051524
 20
0.0448866
 30
0
  0
VERTEX
  8
72_ARTEK_AKFURNITURE_D2_CH_000
 10
0.0510521
 20
0.0423579
 30
0
  0
VERTEX
  8
72_ARTEK_AKFURNITURE_D2_CH_000
 10
0.0505255
 20
0.041184
 30
0
  0
VERTEX
  8
72_ARTEK_AKFURNITURE_D2_CH_000
 10
0.0497389
 20
0.0401667
 30
0
  0
VERTEX
  8
72_ARTEK_AKFURNITURE_D2_CH_000
 10
0.0476926
 20
0.0386142
 30
0
  0
VERTEX
  8
72_ARTEK_AKFURNITURE_D2_CH_000
 10
0.0453396
 20
0.0375664
 30
0
  0
VERTEX
  8
72_ARTEK_AKFURNITURE_D2_CH_000
 10
0.0428648
 20
0.036847
 30
0
  0
VERTEX
  8
72_ARTEK_AKFURNITURE_D2_CH_000
 10
0.0377675
 20
0.0361025
 30
0
  0
VERTEX
  8
72_ARTEK_AKFURNITURE_D2_CH_000
 10
0.0326218
 20
0.0363103
 30
0
  0
VERTEX
  8
72_ARTEK_AKFURNITURE_D2_CH_000
 10
0.0276004
 20
0.0374455
 30
0
  0
VERTEX
  8
72_ARTEK_AKFURNITURE_D2_CH_000
 10
0.0252526
 20
0.0385016
 30
0
  0
VERTEX
  8
72_ARTEK_AKFURNITURE_D2_CH_000
 10
0.0232431
 20
0.0400976
 30
0
  0
VERTEX
  8
72_ARTEK_AKFURNITURE_D2_CH_000
 10
0.0220503
 20
0.0423594
 30
0
  0
VERTEX
  8
72_ARTEK_AKFURNITURE_D2_CH_000
 10
0.021652
 20
0.0449017
 30
0
  0
VERTEX
  8
72_ARTEK_AKFURNITURE_D2_CH_000
 10
0.0216
 20
0.0500583
 30
0
  0
VERTEX
  8
72_ARTEK_AKFURNITURE_D2_CH_000
 10
0.0216
 20
0.0706882
 30
0
  0
VERTEX
  8
72_ARTEK_AKFURNITURE_D2_CH_000
 10
0.0216
 20
0.111948
 30
0
  0
VERTEX
  8
72_ARTEK_AKFURNITURE_D2_CH_000
 10
0.0216
 20
0.153208
 30
0
  0
VERTEX
  8
72_ARTEK_AKFURNITURE_D2_CH_000
 10
0.0216
 20
0.158365
 30
0
  0
VERTEX
  8
72_ARTEK_AKFURNITURE_D2_CH_000
 10
0.0216
 20
0.160944
 30
0
  0
VERTEX
  8
72_ARTEK_AKFURNITURE_D2_CH_000
 10
0.0217333
 20
0.162189
 30
0
  0
VERTEX
  8
72_ARTEK_AKFURNITURE_D2_CH_000
 10
0.0225066
 20
0.163221
 30
0
  0
VERTEX
  8
72_ARTEK_AKFURNITURE_D2_CH_000
 10
0.0258097
 20
0.1673
 30
0
  0
VERTEX
  8
72_ARTEK_AKFURNITURE_D2_CH_000
 10
0.0300343
 20
0.171171
 30
0
  0
VERTEX
  8
72_ARTEK_AKFURNITURE_D2_CH_000
 10
0.034725
 20
0.174937
 30
0
  0
VERTEX
  8
72_ARTEK_AKFURNITURE_D2_CH_000
 10
0.0396903
 20
0.17885
 30
0
  0
VERTEX
  8
72_ARTEK_AKFURNITURE_D2_CH_000
 10
0.0458688
 20
0.183353
 30
0
  0
VERTEX
  8
72_ARTEK_AKFURNITURE_D2_CH_000
 10
0.0487244
 20
0.185223
 30
0
  0
VERTEX
  8
72_ARTEK_AKFURNITURE_D2_CH_000
 10
0.0512467
 20
0.186691
 30
0
  0
SEQEND
  0
POLYLINE
  8
72_ARTEK_AKFURNITURE_D2_CH_000
 66
     1
 70
     0
 10
0.0
 20
0.0
 30
0.0
  0
VERTEX
  8
72_ARTEK_AKFURNITURE_D2_CH_000
 10
0.526953
 20
0.186691
 30
0
  0
VERTEX
  8
72_ARTEK_AKFURNITURE_D2_CH_000
 10
0.526636
 20
0.184136
 30
0
  0
VERTEX
  8
72_ARTEK_AKFURNITURE_D2_CH_000
 10
0.526618
 20
0.181558
 30
0
  0
VERTEX
  8
72_ARTEK_AKFURNITURE_D2_CH_000
 10
0.526613
 20
0.1764
 30
0
  0
VERTEX
  8
72_ARTEK_AKFURNITURE_D2_CH_000
 10
0.526604
 20
0.166085
 30
0
  0
VERTEX
  8
72_ARTEK_AKFURNITURE_D2_CH_000
 10
0.526596
 20
0.145456
 30
0
  0
VERTEX
  8
72_ARTEK_AKFURNITURE_D2_CH_000
 10
0.526582
 20
0.104196
 30
0
  0
VERTEX
  8
72_ARTEK_AKFURNITURE_D2_CH_000
 10
0.526568
 20
0.0629359
 30
0
  0
VERTEX
  8
72_ARTEK_AKFURNITURE_D2_CH_000
 10
0.526581
 20
0.052621
 30
0
  0
VERTEX
  8
72_ARTEK_AKFURNITURE_D2_CH_000
 10
0.526601
 20
0.0474636
 30
0
  0
VERTEX
  8
72_ARTEK_AKFURNITURE_D2_CH_000
 10
0.526676
 20
0.0448866
 30
0
  0
VERTEX
  8
72_ARTEK_AKFURNITURE_D2_CH_000
 10
0.527148
 20
0.0423579
 30
0
  0
VERTEX
  8
72_ARTEK_AKFURNITURE_D2_CH_000
 10
0.527674
 20
0.041184
 30
0
  0
VERTEX
  8
72_ARTEK_AKFURNITURE_D2_CH_000
 10
0.528461
 20
0.0401667
 30
0
  0
VERTEX
  8
72_ARTEK_AKFURNITURE_D2_CH_000
 10
0.530507
 20
0.0386142
 30
0
  0
VERTEX
  8
72_ARTEK_AKFURNITURE_D2_CH_000
 10
0.53286
 20
0.0375664
 30
0
  0
VERTEX
  8
72_ARTEK_AKFURNITURE_D2_CH_000
 10
0.535335
 20
0.036847
 30
0
  0
VERTEX
  8
72_ARTEK_AKFURNITURE_D2_CH_000
 10
0.540432
 20
0.0361025
 30
0
  0
VERTEX
  8
72_ARTEK_AKFURNITURE_D2_CH_000
 10
0.545578
 20
0.0363103
 30
0
  0
VERTEX
  8
72_ARTEK_AKFURNITURE_D2_CH_000
 10
0.550599
 20
0.0374455
 30
0
  0
VERTEX
  8
72_ARTEK_AKFURNITURE_D2_CH_000
 10
0.552947
 20
0.0385016
 30
0
  0
VERTEX
  8
72_ARTEK_AKFURNITURE_D2_CH_000
 10
0.554957
 20
0.0400976
 30
0
  0
VERTEX
  8
72_ARTEK_AKFURNITURE_D2_CH_000
 10
0.55615
 20
0.0423594
 30
0
  0
VERTEX
  8
72_ARTEK_AKFURNITURE_D2_CH_000
 10
0.556548
 20
0.0449017
 30
0
  0
VERTEX
  8
72_ARTEK_AKFURNITURE_D2_CH_000
 10
0.5566
 20
0.0500583
 30
0
  0
VERTEX
  8
72_ARTEK_AKFURNITURE_D2_CH_000
 10
0.5566
 20
0.0706882
 30
0
  0
VERTEX
  8
72_ARTEK_AKFURNITURE_D2_CH_000
 10
0.5566
 20
0.111948
 30
0
  0
VERTEX
  8
72_ARTEK_AKFURNITURE_D2_CH_000
 10
0.5566
 20
0.153208
 30
0
  0
VERTEX
  8
72_ARTEK_AKFURNITURE_D2_CH_000
 10
0.5566
 20
0.158365
 30
0
  0
VERTEX
  8
72_ARTEK_AKFURNITURE_D2_CH_000
 10
0.5566
 20
0.160944
 30
0
  0
VERTEX
  8
72_ARTEK_AKFURNITURE_D2_CH_000
 10
0.556467
 20
0.162189
 30
0
  0
VERTEX
  8
72_ARTEK_AKFURNITURE_D2_CH_000
 10
0.555693
 20
0.163221
 30
0
  0
VERTEX
  8
72_ARTEK_AKFURNITURE_D2_CH_000
 10
0.55239
 20
0.1673
 30
0
  0
VERTEX
  8
72_ARTEK_AKFURNITURE_D2_CH_000
 10
0.548166
 20
0.171171
 30
0
  0
VERTEX
  8
72_ARTEK_AKFURNITURE_D2_CH_000
 10
0.543475
 20
0.174937
 30
0
  0
VERTEX
  8
72_ARTEK_AKFURNITURE_D2_CH_000
 10
0.53851
 20
0.17885
 30
0
  0
VERTEX
  8
72_ARTEK_AKFURNITURE_D2_CH_000
 10
0.532331
 20
0.183353
 30
0
  0
VERTEX
  8
72_ARTEK_AKFURNITURE_D2_CH_000
 10
0.529475
 20
0.185223
 30
0
  0
VERTEX
  8
72_ARTEK_AKFURNITURE_D2_CH_000
 10
0.526953
 20
0.186691
 30
0
  0
SEQEND
  0
POLYLINE
  8
72_ARTEK_AKFURNITURE_D2_CH_000
 66
     1
 70
     0
 10
0.0
 20
0.0
 30
0.0
  0
VERTEX
  8
72_ARTEK_AKFURNITURE_D2_CH_000
 10
0.0266
 20
0.178861
 30
0
  0
VERTEX
  8
72_ARTEK_AKFURNITURE_D2_CH_000
 10
0.0267921
 20
0.17691
 30
0
  0
VERTEX
  8
72_ARTEK_AKFURNITURE_D2_CH_000
 10
0.0273612
 20
0.175034
 30
0
  0
VERTEX
  8
72_ARTEK_AKFURNITURE_D2_CH_000
 10
0.0282853
 20
0.173305
 30
0
  0
VERTEX
  8
72_ARTEK_AKFURNITURE_D2_CH_000
 10
0.0295289
 20
0.17179
 30
0
  0
VERTEX
  8
72_ARTEK_AKFURNITURE_D2_CH_000
 10
0.0310443
 20
0.170546
 30
0
  0
VERTEX
  8
72_ARTEK_AKFURNITURE_D2_CH_000
 10
0.0327731
 20
0.169622
 30
0
  0
VERTEX
  8
72_ARTEK_AKFURNITURE_D2_CH_000
 10
0.0346491
 20
0.169053
 30
0
  0
VERTEX
  8
72_ARTEK_AKFURNITURE_D2_CH_000
 10
0.0366
 20
0.168861
 30
0
  0
VERTEX
  8
72_ARTEK_AKFURNITURE_D2_CH_000
 10
0.0385509
 20
0.169053
 30
0
  0
VERTEX
  8
72_ARTEK_AKFURNITURE_D2_CH_000
 10
0.0404268
 20
0.169622
 30
0
  0
VERTEX
  8
72_ARTEK_AKFURNITURE_D2_CH_000
 10
0.0421557
 20
0.170546
 30
0
  0
VERTEX
  8
72_ARTEK_AKFURNITURE_D2_CH_000
 10
0.043671
 20
0.17179
 30
0
  0
VERTEX
  8
72_ARTEK_AKFURNITURE_D2_CH_000
 10
0.0449147
 20
0.173305
 30
0
  0
VERTEX
  8
72_ARTEK_AKFURNITURE_D2_CH_000
 10
0.0458388
 20
0.175034
 30
0
  0
VERTEX
  8
72_ARTEK_AKFURNITURE_D2_CH_000
 10
0.0464078
 20
0.17691
 30
0
  0
VERTEX
  8
72_ARTEK_AKFURNITURE_D2_CH_000
 10
0.0466
 20
0.178861
 30
0
  0
VERTEX
  8
72_ARTEK_AKFURNITURE_D2_CH_000
 10
0.0466
 20
0.178861
 30
0
  0
VERTEX
  8
72_ARTEK_AKFURNITURE_D2_CH_000
 10
0.0464078
 20
0.180812
 30
0
  0
VERTEX
  8
72_ARTEK_AKFURNITURE_D2_CH_000
 10
0.0458388
 20
0.182688
 30
0
  0
VERTEX
  8
72_ARTEK_AKFURNITURE_D2_CH_000
 10
0.0449147
 20
0.184417
 30
0
  0
VERTEX
  8
72_ARTEK_AKFURNITURE_D2_CH_000
 10
0.043671
 20
0.185932
 30
0
  0
VERTEX
  8
72_ARTEK_AKFURNITURE_D2_CH_000
 10
0.0421557
 20
0.187176
 30
0
  0
VERTEX
  8
72_ARTEK_AKFURNITURE_D2_CH_000
 10
0.0404268
 20
0.1881
 30
0
  0
VERTEX
  8
72_ARTEK_AKFURNITURE_D2_CH_000
 10
0.0385509
 20
0.188669
 30
0
  0
VERTEX
  8
72_ARTEK_AKFURNITURE_D2_CH_000
 10
0.0366
 20
0.188861
 30
0
  0
VERTEX
  8
72_ARTEK_AKFURNITURE_D2_CH_000
 10
0.0346491
 20
0.188669
 30
0
  0
VERTEX
  8
72_ARTEK_AKFURNITURE_D2_CH_000
 10
0.0327731
 20
0.1881
 30
0
  0
VERTEX
  8
72_ARTEK_AKFURNITURE_D2_CH_000
 10
0.0310443
 20
0.187176
 30
0
  0
VERTEX
  8
72_ARTEK_AKFURNITURE_D2_CH_000
 10
0.0295289
 20
0.185932
 30
0
  0
VERTEX
  8
72_ARTEK_AKFURNITURE_D2_CH_000
 10
0.0282853
 20
0.184417
 30
0
  0
VERTEX
  8
72_ARTEK_AKFURNITURE_D2_CH_000
 10
0.0273612
 20
0.182688
 30
0
  0
VERTEX
  8
72_ARTEK_AKFURNITURE_D2_CH_000
 10
0.0267921
 20
0.180812
 30
0
  0
VERTEX
  8
72_ARTEK_AKFURNITURE_D2_CH_000
 10
0.0266
 20
0.178861
 30
0
  0
SEQEND
  0
POLYLINE
  8
72_ARTEK_AKFURNITURE_D2_CH_000
 66
     1
 70
     0
 10
0.0
 20
0.0
 30
0.0
  0
VERTEX
  8
72_ARTEK_AKFURNITURE_D2_CH_000
 10
0.5516
 20
0.178861
 30
0
  0
VERTEX
  8
72_ARTEK_AKFURNITURE_D2_CH_000
 10
0.551408
 20
0.17691
 30
0
  0
VERTEX
  8
72_ARTEK_AKFURNITURE_D2_CH_000
 10
0.550839
 20
0.175034
 30
0
  0
VERTEX
  8
72_ARTEK_AKFURNITURE_D2_CH_000
 10
0.549915
 20
0.173305
 30
0
  0
VERTEX
  8
72_ARTEK_AKFURNITURE_D2_CH_000
 10
0.548671
 20
0.17179
 30
0
  0
VERTEX
  8
72_ARTEK_AKFURNITURE_D2_CH_000
 10
0.547156
 20
0.170546
 30
0
  0
VERTEX
  8
72_ARTEK_AKFURNITURE_D2_CH_000
 10
0.545427
 20
0.169622
 30
0
  0
VERTEX
  8
72_ARTEK_AKFURNITURE_D2_CH_000
 10
0.543551
 20
0.169053
 30
0
  0
VERTEX
  8
72_ARTEK_AKFURNITURE_D2_CH_000
 10
0.5416
 20
0.168861
 30
0
  0
VERTEX
  8
72_ARTEK_AKFURNITURE_D2_CH_000
 10
0.539649
 20
0.169053
 30
0
  0
VERTEX
  8
72_ARTEK_AKFURNITURE_D2_CH_000
 10
0.537773
 20
0.169622
 30
0
  0
VERTEX
  8
72_ARTEK_AKFURNITURE_D2_CH_000
 10
0.536044
 20
0.170546
 30
0
  0
VERTEX
  8
72_ARTEK_AKFURNITURE_D2_CH_000
 10
0.534529
 20
0.17179
 30
0
  0
VERTEX
  8
72_ARTEK_AKFURNITURE_D2_CH_000
 10
0.533285
 20
0.173305
 30
0
  0
VERTEX
  8
72_ARTEK_AKFURNITURE_D2_CH_000
 10
0.532361
 20
0.175034
 30
0
  0
VERTEX
  8
72_ARTEK_AKFURNITURE_D2_CH_000
 10
0.531792
 20
0.17691
 30
0
  0
VERTEX
  8
72_ARTEK_AKFURNITURE_D2_CH_000
 10
0.5316
 20
0.178861
 30
0
  0
VERTEX
  8
72_ARTEK_AKFURNITURE_D2_CH_000
 10
0.5316
 20
0.178861
 30
0
  0
VERTEX
  8
72_ARTEK_AKFURNITURE_D2_CH_000
 10
0.531792
 20
0.180812
 30
0
  0
VERTEX
  8
72_ARTEK_AKFURNITURE_D2_CH_000
 10
0.532361
 20
0.182688
 30
0
  0
VERTEX
  8
72_ARTEK_AKFURNITURE_D2_CH_000
 10
0.533285
 20
0.184417
 30
0
  0
VERTEX
  8
72_ARTEK_AKFURNITURE_D2_CH_000
 10
0.534529
 20
0.185932
 30
0
  0
VERTEX
  8
72_ARTEK_AKFURNITURE_D2_CH_000
 10
0.536044
 20
0.187176
 30
0
  0
VERTEX
  8
72_ARTEK_AKFURNITURE_D2_CH_000
 10
0.537773
 20
0.1881
 30
0
  0
VERTEX
  8
72_ARTEK_AKFURNITURE_D2_CH_000
 10
0.539649
 20
0.188669
 30
0
  0
VERTEX
  8
72_ARTEK_AKFURNITURE_D2_CH_000
 10
0.5416
 20
0.188861
 30
0
  0
VERTEX
  8
72_ARTEK_AKFURNITURE_D2_CH_000
 10
0.543551
 20
0.188669
 30
0
  0
VERTEX
  8
72_ARTEK_AKFURNITURE_D2_CH_000
 10
0.545427
 20
0.1881
 30
0
  0
VERTEX
  8
72_ARTEK_AKFURNITURE_D2_CH_000
 10
0.547156
 20
0.187176
 30
0
  0
VERTEX
  8
72_ARTEK_AKFURNITURE_D2_CH_000
 10
0.548671
 20
0.185932
 30
0
  0
VERTEX
  8
72_ARTEK_AKFURNITURE_D2_CH_000
 10
0.549915
 20
0.184417
 30
0
  0
VERTEX
  8
72_ARTEK_AKFURNITURE_D2_CH_000
 10
0.550839
 20
0.182688
 30
0
  0
VERTEX
  8
72_ARTEK_AKFURNITURE_D2_CH_000
 10
0.551408
 20
0.180812
 30
0
  0
VERTEX
  8
72_ARTEK_AKFURNITURE_D2_CH_000
 10
0.5516
 20
0.178861
 30
0
  0
SEQEND
  0
POLYLINE
  8
72_ARTEK_AKFURNITURE_D2_CH_000
 66
     1
 70
     0
 10
0.0
 20
0.0
 30
0.0
  0
VERTEX
  8
72_ARTEK_AKFURNITURE_D2_CH_000
 10
0.0621085
 20
-0.212863
 30
0
  0
VERTEX
  8
72_ARTEK_AKFURNITURE_D2_CH_000
 10
0.0621067
 20
-0.212496
 30
0
  0
VERTEX
  8
72_ARTEK_AKFURNITURE_D2_CH_000
 10
0.0621204
 20
-0.198657
 30
0
  0
VERTEX
  8
72_ARTEK_AKFURNITURE_D2_CH_000
 10
0.0621067
 20
-0.184819
 30
0
  0
VERTEX
  8
72_ARTEK_AKFURNITURE_D2_CH_000
 10
0.0621085
 20
-0.184452
 30
0
  0
VERTEX
  8
72_ARTEK_AKFURNITURE_D2_CH_000
 10
0.0621073
 20
-0.184086
 30
0
  0
VERTEX
  8
72_ARTEK_AKFURNITURE_D2_CH_000
 10
0.0621045
 20
-0.183721
 30
0
  0
VERTEX
  8
72_ARTEK_AKFURNITURE_D2_CH_000
 10
0.0621015
 20
-0.183358
 30
0
  0
VERTEX
  8
72_ARTEK_AKFURNITURE_D2_CH_000
 10
0.0621
 20
-0.182996
 30
0
  0
VERTEX
  8
72_ARTEK_AKFURNITURE_D2_CH_000
 10
0.0621018
 20
-0.182636
 30
0
  0
VERTEX
  8
72_ARTEK_AKFURNITURE_D2_CH_000
 10
0.0621082
 20
-0.182277
 30
0
  0
VERTEX
  8
72_ARTEK_AKFURNITURE_D2_CH_000
 10
0.0621213
 20
-0.18192
 30
0
  0
VERTEX
  8
72_ARTEK_AKFURNITURE_D2_CH_000
 10
0.0621421
 20
-0.181564
 30
0
  0
VERTEX
  8
72_ARTEK_AKFURNITURE_D2_CH_000
 10
0.0621723
 20
-0.18121
 30
0
  0
VERTEX
  8
72_ARTEK_AKFURNITURE_D2_CH_000
 10
0.0622138
 20
-0.180858
 30
0
  0
VERTEX
  8
72_ARTEK_AKFURNITURE_D2_CH_000
 10
0.0622681
 20
-0.180508
 30
0
  0
VERTEX
  8
72_ARTEK_AKFURNITURE_D2_CH_000
 10
0.0623368
 20
-0.18016
 30
0
  0
VERTEX
  8
72_ARTEK_AKFURNITURE_D2_CH_000
 10
0.0624213
 20
-0.179813
 30
0
  0
VERTEX
  8
72_ARTEK_AKFURNITURE_D2_CH_000
 10
0.0625232
 20
-0.179468
 30
0
  0
VERTEX
  8
72_ARTEK_AKFURNITURE_D2_CH_000
 10
0.0626444
 20
-0.179125
 30
0
  0
VERTEX
  8
72_ARTEK_AKFURNITURE_D2_CH_000
 10
0.0627866
 20
-0.178785
 30
0
  0
VERTEX
  8
72_ARTEK_AKFURNITURE_D2_CH_000
 10
0.0629508
 20
-0.178446
 30
0
  0
VERTEX
  8
72_ARTEK_AKFURNITURE_D2_CH_000
 10
0.0631391
 20
-0.17811
 30
0
  0
VERTEX
  8
72_ARTEK_AKFURNITURE_D2_CH_000
 10
0.0633527
 20
-0.177775
 30
0
  0
VERTEX
  8
72_ARTEK_AKFURNITURE_D2_CH_000
 10
0.0635425
 20
-0.177521
 30
0
  0
VERTEX
  8
72_ARTEK_AKFURNITURE_D2_CH_000
 10
0.0637592
 20
-0.177275
 30
0
  0
VERTEX
  8
72_ARTEK_AKFURNITURE_D2_CH_000
 10
0.064
 20
-0.177037
 30
0
  0
VERTEX
  8
72_ARTEK_AKFURNITURE_D2_CH_000
 10
0.064263
 20
-0.176807
 30
0
  0
VERTEX
  8
72_ARTEK_AKFURNITURE_D2_CH_000
 10
0.0645453
 20
-0.176586
 30
0
  0
VERTEX
  8
72_ARTEK_AKFURNITURE_D2_CH_000
 10
0.064845
 20
-0.176374
 30
0
  0
VERTEX
  8
72_ARTEK_AKFURNITURE_D2_CH_000
 10
0.0651596
 20
-0.176171
 30
0
  0
VERTEX
  8
72_ARTEK_AKFURNITURE_D2_CH_000
 10
0.0654868
 20
-0.175977
 30
0
  0
VERTEX
  8
72_ARTEK_AKFURNITURE_D2_CH_000
 10
0.0658243
 20
-0.175793
 30
0
  0
VERTEX
  8
72_ARTEK_AKFURNITURE_D2_CH_000
 10
0.0661695
 20
-0.175619
 30
0
  0
VERTEX
  8
72_ARTEK_AKFURNITURE_D2_CH_000
 10
0.0665198
 20
-0.175455
 30
0
  0
VERTEX
  8
72_ARTEK_AKFURNITURE_D2_CH_000
 10
0.0668735
 20
-0.175302
 30
0
  0
VERTEX
  8
72_ARTEK_AKFURNITURE_D2_CH_000
 10
0.0672281
 20
-0.175159
 30
0
  0
VERTEX
  8
72_ARTEK_AKFURNITURE_D2_CH_000
 10
0.0675809
 20
-0.175027
 30
0
  0
VERTEX
  8
72_ARTEK_AKFURNITURE_D2_CH_000
 10
0.0679297
 20
-0.174907
 30
0
  0
VERTEX
  8
72_ARTEK_AKFURNITURE_D2_CH_000
 10
0.0682721
 20
-0.174797
 30
0
  0
VERTEX
  8
72_ARTEK_AKFURNITURE_D2_CH_000
 10
0.068606
 20
-0.1747
 30
0
  0
VERTEX
  8
72_ARTEK_AKFURNITURE_D2_CH_000
 10
0.0689289
 20
-0.174615
 30
0
  0
VERTEX
  8
72_ARTEK_AKFURNITURE_D2_CH_000
 10
0.0692383
 20
-0.174542
 30
0
  0
VERTEX
  8
72_ARTEK_AKFURNITURE_D2_CH_000
 10
0.0695319
 20
-0.174481
 30
0
  0
VERTEX
  8
72_ARTEK_AKFURNITURE_D2_CH_000
 10
0.0706391
 20
-0.174279
 30
0
  0
VERTEX
  8
72_ARTEK_AKFURNITURE_D2_CH_000
 10
0.0717545
 20
-0.174098
 30
0
  0
VERTEX
  8
72_ARTEK_AKFURNITURE_D2_CH_000
 10
0.072876
 20
-0.173939
 30
0
  0
VERTEX
  8
72_ARTEK_AKFURNITURE_D2_CH_000
 10
0.0740015
 20
-0.173806
 30
0
  0
VERTEX
  8
72_ARTEK_AKFURNITURE_D2_CH_000
 10
0.0751294
 20
-0.173701
 30
0
  0
VERTEX
  8
72_ARTEK_AKFURNITURE_D2_CH_000
 10
0.0762571
 20
-0.17363
 30
0
  0
VERTEX
  8
72_ARTEK_AKFURNITURE_D2_CH_000
 10
0.0771162
 20
-0.173602
 30
0
  0
VERTEX
  8
72_ARTEK_AKFURNITURE_D2_CH_000
 10
0.0779754
 20
-0.17363
 30
0
  0
VERTEX
  8
72_ARTEK_AKFURNITURE_D2_CH_000
 10
0.079103
 20
-0.173701
 30
0
  0
VERTEX
  8
72_ARTEK_AKFURNITURE_D2_CH_000
 10
0.0802309
 20
-0.173806
 30
0
  0
VERTEX
  8
72_ARTEK_AKFURNITURE_D2_CH_000
 10
0.0813564
 20
-0.173939
 30
0
  0
VERTEX
  8
72_ARTEK_AKFURNITURE_D2_CH_000
 10
0.0824779
 20
-0.174098
 30
0
  0
VERTEX
  8
72_ARTEK_AKFURNITURE_D2_CH_000
 10
0.0835934
 20
-0.174279
 30
0
  0
VERTEX
  8
72_ARTEK_AKFURNITURE_D2_CH_000
 10
0.0847005
 20
-0.174481
 30
0
  0
VERTEX
  8
72_ARTEK_AKFURNITURE_D2_CH_000
 10
0.0849941
 20
-0.174542
 30
0
  0
VERTEX
  8
72_ARTEK_AKFURNITURE_D2_CH_000
 10
0.0853036
 20
-0.174615
 30
0
  0
VERTEX
  8
72_ARTEK_AKFURNITURE_D2_CH_000
 10
0.0856264
 20
-0.1747
 30
0
  0
VERTEX
  8
72_ARTEK_AKFURNITURE_D2_CH_000
 10
0.0859603
 20
-0.174797
 30
0
  0
VERTEX
  8
72_ARTEK_AKFURNITURE_D2_CH_000
 10
0.0863027
 20
-0.174907
 30
0
  0
VERTEX
  8
72_ARTEK_AKFURNITURE_D2_CH_000
 10
0.0866515
 20
-0.175027
 30
0
  0
VERTEX
  8
72_ARTEK_AKFURNITURE_D2_CH_000
 10
0.0870043
 20
-0.175159
 30
0
  0
VERTEX
  8
72_ARTEK_AKFURNITURE_D2_CH_000
 10
0.0873589
 20
-0.175302
 30
0
  0
VERTEX
  8
72_ARTEK_AKFURNITURE_D2_CH_000
 10
0.0877126
 20
-0.175455
 30
0
  0
VERTEX
  8
72_ARTEK_AKFURNITURE_D2_CH_000
 10
0.088063
 20
-0.175619
 30
0
  0
VERTEX
  8
72_ARTEK_AKFURNITURE_D2_CH_000
 10
0.0884081
 20
-0.175793
 30
0
  0
VERTEX
  8
72_ARTEK_AKFURNITURE_D2_CH_000
 10
0.0887456
 20
-0.175977
 30
0
  0
VERTEX
  8
72_ARTEK_AKFURNITURE_D2_CH_000
 10
0.0890728
 20
-0.176171
 30
0
  0
VERTEX
  8
72_ARTEK_AKFURNITURE_D2_CH_000
 10
0.0893874
 20
-0.176374
 30
0
  0
VERTEX
  8
72_ARTEK_AKFURNITURE_D2_CH_000
 10
0.0896871
 20
-0.176586
 30
0
  0
VERTEX
  8
72_ARTEK_AKFURNITURE_D2_CH_000
 10
0.0899694
 20
-0.176807
 30
0
  0
VERTEX
  8
72_ARTEK_AKFURNITURE_D2_CH_000
 10
0.0902325
 20
-0.177037
 30
0
  0
VERTEX
  8
72_ARTEK_AKFURNITURE_D2_CH_000
 10
0.0904732
 20
-0.177275
 30
0
  0
VERTEX
  8
72_ARTEK_AKFURNITURE_D2_CH_000
 10
0.0906899
 20
-0.177521
 30
0
  0
VERTEX
  8
72_ARTEK_AKFURNITURE_D2_CH_000
 10
0.0908797
 20
-0.177775
 30
0
  0
VERTEX
  8
72_ARTEK_AKFURNITURE_D2_CH_000
 10
0.0910934
 20
-0.17811
 30
0
  0
VERTEX
  8
72_ARTEK_AKFURNITURE_D2_CH_000
 10
0.0912817
 20
-0.178446
 30
0
  0
VERTEX
  8
72_ARTEK_AKFURNITURE_D2_CH_000
 10
0.0914458
 20
-0.178785
 30
0
  0
VERTEX
  8
72_ARTEK_AKFURNITURE_D2_CH_000
 10
0.0915881
 20
-0.179125
 30
0
  0
VERTEX
  8
72_ARTEK_AKFURNITURE_D2_CH_000
 10
0.0917092
 20
-0.179468
 30
0
  0
VERTEX
  8
72_ARTEK_AKFURNITURE_D2_CH_000
 10
0.0918111
 20
-0.179813
 30
0
  0
VERTEX
  8
72_ARTEK_AKFURNITURE_D2_CH_000
 10
0.0918957
 20
-0.18016
 30
0
  0
VERTEX
  8
72_ARTEK_AKFURNITURE_D2_CH_000
 10
0.0919643
 20
-0.180508
 30
0
  0
VERTEX
  8
72_ARTEK_AKFURNITURE_D2_CH_000
 10
0.0920187
 20
-0.180858
 30
0
  0
VERTEX
  8
72_ARTEK_AKFURNITURE_D2_CH_000
 10
0.0920602
 20
-0.18121
 30
0
  0
VERTEX
  8
72_ARTEK_AKFURNITURE_D2_CH_000
 10
0.0920904
 20
-0.181564
 30
0
  0
VERTEX
  8
72_ARTEK_AKFURNITURE_D2_CH_000
 10
0.0921111
 20
-0.18192
 30
0
  0
VERTEX
  8
72_ARTEK_AKFURNITURE_D2_CH_000
 10
0.0921242
 20
-0.182277
 30
0
  0
VERTEX
  8
72_ARTEK_AKFURNITURE_D2_CH_000
 10
0.0921307
 20
-0.182636
 30
0
  0
VERTEX
  8
72_ARTEK_AKFURNITURE_D2_CH_000
 10
0.0921325
 20
-0.182996
 30
0
  0
VERTEX
  8
72_ARTEK_AKFURNITURE_D2_CH_000
 10
0.092131
 20
-0.183358
 30
0
  0
VERTEX
  8
72_ARTEK_AKFURNITURE_D2_CH_000
 10
0.0921279
 20
-0.183721
 30
0
  0
VERTEX
  8
72_ARTEK_AKFURNITURE_D2_CH_000
 10
0.0921252
 20
-0.184086
 30
0
  0
VERTEX
  8
72_ARTEK_AKFURNITURE_D2_CH_000
 10
0.0921239
 20
-0.184452
 30
0
  0
VERTEX
  8
72_ARTEK_AKFURNITURE_D2_CH_000
 10
0.0921258
 20
-0.184819
 30
0
  0
VERTEX
  8
72_ARTEK_AKFURNITURE_D2_CH_000
 10
0.0921121
 20
-0.198657
 30
0
  0
VERTEX
  8
72_ARTEK_AKFURNITURE_D2_CH_000
 10
0.0921258
 20
-0.212496
 30
0
  0
VERTEX
  8
72_ARTEK_AKFURNITURE_D2_CH_000
 10
0.0921239
 20
-0.212863
 30
0
  0
VERTEX
  8
72_ARTEK_AKFURNITURE_D2_CH_000
 10
0.0921252
 20
-0.213229
 30
0
  0
VERTEX
  8
72_ARTEK_AKFURNITURE_D2_CH_000
 10
0.0921279
 20
-0.213594
 30
0
  0
VERTEX
  8
72_ARTEK_AKFURNITURE_D2_CH_000
 10
0.092131
 20
-0.213957
 30
0
  0
VERTEX
  8
72_ARTEK_AKFURNITURE_D2_CH_000
 10
0.0921325
 20
-0.214319
 30
0
  0
VERTEX
  8
72_ARTEK_AKFURNITURE_D2_CH_000
 10
0.0921307
 20
-0.214679
 30
0
  0
VERTEX
  8
72_ARTEK_AKFURNITURE_D2_CH_000
 10
0.0921242
 20
-0.215038
 30
0
  0
VERTEX
  8
72_ARTEK_AKFURNITURE_D2_CH_000
 10
0.0921111
 20
-0.215395
 30
0
  0
VERTEX
  8
72_ARTEK_AKFURNITURE_D2_CH_000
 10
0.0920904
 20
-0.215751
 30
0
  0
VERTEX
  8
72_ARTEK_AKFURNITURE_D2_CH_000
 10
0.0920602
 20
-0.216105
 30
0
  0
VERTEX
  8
72_ARTEK_AKFURNITURE_D2_CH_000
 10
0.0920187
 20
-0.216457
 30
0
  0
VERTEX
  8
72_ARTEK_AKFURNITURE_D2_CH_000
 10
0.0919643
 20
-0.216807
 30
0
  0
VERTEX
  8
72_ARTEK_AKFURNITURE_D2_CH_000
 10
0.0918957
 20
-0.217155
 30
0
  0
VERTEX
  8
72_ARTEK_AKFURNITURE_D2_CH_000
 10
0.0918111
 20
-0.217502
 30
0
  0
VERTEX
  8
72_ARTEK_AKFURNITURE_D2_CH_000
 10
0.0917092
 20
-0.217847
 30
0
  0
VERTEX
  8
72_ARTEK_AKFURNITURE_D2_CH_000
 10
0.0915881
 20
-0.21819
 30
0
  0
VERTEX
  8
72_ARTEK_AKFURNITURE_D2_CH_000
 10
0.0914458
 20
-0.21853
 30
0
  0
VERTEX
  8
72_ARTEK_AKFURNITURE_D2_CH_000
 10
0.0912817
 20
-0.218869
 30
0
  0
VERTEX
  8
72_ARTEK_AKFURNITURE_D2_CH_000
 10
0.0910934
 20
-0.219205
 30
0
  0
VERTEX
  8
72_ARTEK_AKFURNITURE_D2_CH_000
 10
0.0908797
 20
-0.21954
 30
0
  0
VERTEX
  8
72_ARTEK_AKFURNITURE_D2_CH_000
 10
0.0906899
 20
-0.219794
 30
0
  0
VERTEX
  8
72_ARTEK_AKFURNITURE_D2_CH_000
 10
0.0904732
 20
-0.22004
 30
0
  0
VERTEX
  8
72_ARTEK_AKFURNITURE_D2_CH_000
 10
0.0902325
 20
-0.220278
 30
0
  0
VERTEX
  8
72_ARTEK_AKFURNITURE_D2_CH_000
 10
0.0899694
 20
-0.220508
 30
0
  0
VERTEX
  8
72_ARTEK_AKFURNITURE_D2_CH_000
 10
0.0896871
 20
-0.220729
 30
0
  0
VERTEX
  8
72_ARTEK_AKFURNITURE_D2_CH_000
 10
0.0893874
 20
-0.220941
 30
0
  0
VERTEX
  8
72_ARTEK_AKFURNITURE_D2_CH_000
 10
0.0890728
 20
-0.221144
 30
0
  0
VERTEX
  8
72_ARTEK_AKFURNITURE_D2_CH_000
 10
0.0887456
 20
-0.221338
 30
0
  0
VERTEX
  8
72_ARTEK_AKFURNITURE_D2_CH_000
 10
0.0884081
 20
-0.221522
 30
0
  0
VERTEX
  8
72_ARTEK_AKFURNITURE_D2_CH_000
 10
0.088063
 20
-0.221696
 30
0
  0
VERTEX
  8
72_ARTEK_AKFURNITURE_D2_CH_000
 10
0.0877126
 20
-0.22186
 30
0
  0
VERTEX
  8
72_ARTEK_AKFURNITURE_D2_CH_000
 10
0.0873589
 20
-0.222013
 30
0
  0
VERTEX
  8
72_ARTEK_AKFURNITURE_D2_CH_000
 10
0.0870043
 20
-0.222156
 30
0
  0
VERTEX
  8
72_ARTEK_AKFURNITURE_D2_CH_000
 10
0.0866515
 20
-0.222288
 30
0
  0
VERTEX
  8
72_ARTEK_AKFURNITURE_D2_CH_000
 10
0.0863027
 20
-0.222408
 30
0
  0
VERTEX
  8
72_ARTEK_AKFURNITURE_D2_CH_000
 10
0.0859603
 20
-0.222518
 30
0
  0
VERTEX
  8
72_ARTEK_AKFURNITURE_D2_CH_000
 10
0.0856264
 20
-0.222615
 30
0
  0
VERTEX
  8
72_ARTEK_AKFURNITURE_D2_CH_000
 10
0.0853036
 20
-0.2227
 30
0
  0
VERTEX
  8
72_ARTEK_AKFURNITURE_D2_CH_000
 10
0.0849941
 20
-0.222773
 30
0
  0
VERTEX
  8
72_ARTEK_AKFURNITURE_D2_CH_000
 10
0.0847005
 20
-0.222834
 30
0
  0
VERTEX
  8
72_ARTEK_AKFURNITURE_D2_CH_000
 10
0.0835934
 20
-0.223035
 30
0
  0
VERTEX
  8
72_ARTEK_AKFURNITURE_D2_CH_000
 10
0.0824779
 20
-0.223217
 30
0
  0
VERTEX
  8
72_ARTEK_AKFURNITURE_D2_CH_000
 10
0.0813564
 20
-0.223376
 30
0
  0
VERTEX
  8
72_ARTEK_AKFURNITURE_D2_CH_000
 10
0.0802309
 20
-0.223509
 30
0
  0
VERTEX
  8
72_ARTEK_AKFURNITURE_D2_CH_000
 10
0.079103
 20
-0.223613
 30
0
  0
VERTEX
  8
72_ARTEK_AKFURNITURE_D2_CH_000
 10
0.0779754
 20
-0.223685
 30
0
  0
VERTEX
  8
72_ARTEK_AKFURNITURE_D2_CH_000
 10
0.0771162
 20
-0.223713
 30
0
  0
VERTEX
  8
72_ARTEK_AKFURNITURE_D2_CH_000
 10
0.0762571
 20
-0.223685
 30
0
  0
VERTEX
  8
72_ARTEK_AKFURNITURE_D2_CH_000
 10
0.0751294
 20
-0.223613
 30
0
  0
VERTEX
  8
72_ARTEK_AKFURNITURE_D2_CH_000
 10
0.0740015
 20
-0.223509
 30
0
  0
VERTEX
  8
72_ARTEK_AKFURNITURE_D2_CH_000
 10
0.072876
 20
-0.223376
 30
0
  0
VERTEX
  8
72_ARTEK_AKFURNITURE_D2_CH_000
 10
0.0717545
 20
-0.223217
 30
0
  0
VERTEX
  8
72_ARTEK_AKFURNITURE_D2_CH_000
 10
0.0706391
 20
-0.223035
 30
0
  0
VERTEX
  8
72_ARTEK_AKFURNITURE_D2_CH_000
 10
0.0695319
 20
-0.222834
 30
0
  0
VERTEX
  8
72_ARTEK_AKFURNITURE_D2_CH_000
 10
0.0692383
 20
-0.222773
 30
0
  0
VERTEX
  8
72_ARTEK_AKFURNITURE_D2_CH_000
 10
0.0689289
 20
-0.2227
 30
0
  0
VERTEX
  8
72_ARTEK_AKFURNITURE_D2_CH_000
 10
0.068606
 20
-0.222615
 30
0
  0
VERTEX
  8
72_ARTEK_AKFURNITURE_D2_CH_000
 10
0.0682721
 20
-0.222518
 30
0
  0
VERTEX
  8
72_ARTEK_AKFURNITURE_D2_CH_000
 10
0.0679297
 20
-0.222408
 30
0
  0
VERTEX
  8
72_ARTEK_AKFURNITURE_D2_CH_000
 10
0.0675809
 20
-0.222288
 30
0
  0
VERTEX
  8
72_ARTEK_AKFURNITURE_D2_CH_000
 10
0.0672281
 20
-0.222156
 30
0
  0
VERTEX
  8
72_ARTEK_AKFURNITURE_D2_CH_000
 10
0.0668735
 20
-0.222013
 30
0
  0
VERTEX
  8
72_ARTEK_AKFURNITURE_D2_CH_000
 10
0.0665198
 20
-0.22186
 30
0
  0
VERTEX
  8
72_ARTEK_AKFURNITURE_D2_CH_000
 10
0.0661695
 20
-0.221696
 30
0
  0
VERTEX
  8
72_ARTEK_AKFURNITURE_D2_CH_000
 10
0.0658243
 20
-0.221522
 30
0
  0
VERTEX
  8
72_ARTEK_AKFURNITURE_D2_CH_000
 10
0.0654868
 20
-0.221338
 30
0
  0
VERTEX
  8
72_ARTEK_AKFURNITURE_D2_CH_000
 10
0.0651596
 20
-0.221144
 30
0
  0
VERTEX
  8
72_ARTEK_AKFURNITURE_D2_CH_000
 10
0.064845
 20
-0.220941
 30
0
  0
VERTEX
  8
72_ARTEK_AKFURNITURE_D2_CH_000
 10
0.0645453
 20
-0.220729
 30
0
  0
VERTEX
  8
72_ARTEK_AKFURNITURE_D2_CH_000
 10
0.064263
 20
-0.220508
 30
0
  0
VERTEX
  8
72_ARTEK_AKFURNITURE_D2_CH_000
 10
0.064
 20
-0.220278
 30
0
  0
VERTEX
  8
72_ARTEK_AKFURNITURE_D2_CH_000
 10
0.0637592
 20
-0.22004
 30
0
  0
VERTEX
  8
72_ARTEK_AKFURNITURE_D2_CH_000
 10
0.0635425
 20
-0.219794
 30
0
  0
VERTEX
  8
72_ARTEK_AKFURNITURE_D2_CH_000
 10
0.0633527
 20
-0.21954
 30
0
  0
VERTEX
  8
72_ARTEK_AKFURNITURE_D2_CH_000
 10
0.0631391
 20
-0.219205
 30
0
  0
VERTEX
  8
72_ARTEK_AKFURNITURE_D2_CH_000
 10
0.0629508
 20
-0.218869
 30
0
  0
VERTEX
  8
72_ARTEK_AKFURNITURE_D2_CH_000
 10
0.0627866
 20
-0.21853
 30
0
  0
VERTEX
  8
72_ARTEK_AKFURNITURE_D2_CH_000
 10
0.0626444
 20
-0.21819
 30
0
  0
VERTEX
  8
72_ARTEK_AKFURNITURE_D2_CH_000
 10
0.0625232
 20
-0.217847
 30
0
  0
VERTEX
  8
72_ARTEK_AKFURNITURE_D2_CH_000
 10
0.0624213
 20
-0.217502
 30
0
  0
VERTEX
  8
72_ARTEK_AKFURNITURE_D2_CH_000
 10
0.0623368
 20
-0.217155
 30
0
  0
VERTEX
  8
72_ARTEK_AKFURNITURE_D2_CH_000
 10
0.0622681
 20
-0.216807
 30
0
  0
VERTEX
  8
72_ARTEK_AKFURNITURE_D2_CH_000
 10
0.0622138
 20
-0.216457
 30
0
  0
VERTEX
  8
72_ARTEK_AKFURNITURE_D2_CH_000
 10
0.0621723
 20
-0.216105
 30
0
  0
VERTEX
  8
72_ARTEK_AKFURNITURE_D2_CH_000
 10
0.0621421
 20
-0.215751
 30
0
  0
VERTEX
  8
72_ARTEK_AKFURNITURE_D2_CH_000
 10
0.0621213
 20
-0.215395
 30
0
  0
VERTEX
  8
72_ARTEK_AKFURNITURE_D2_CH_000
 10
0.0621082
 20
-0.215038
 30
0
  0
VERTEX
  8
72_ARTEK_AKFURNITURE_D2_CH_000
 10
0.0621018
 20
-0.214679
 30
0
  0
VERTEX
  8
72_ARTEK_AKFURNITURE_D2_CH_000
 10
0.0621
 20
-0.214319
 30
0
  0
VERTEX
  8
72_ARTEK_AKFURNITURE_D2_CH_000
 10
0.0621015
 20
-0.213957
 30
0
  0
VERTEX
  8
72_ARTEK_AKFURNITURE_D2_CH_000
 10
0.0621045
 20
-0.213594
 30
0
  0
VERTEX
  8
72_ARTEK_AKFURNITURE_D2_CH_000
 10
0.0621073
 20
-0.213229
 30
0
  0
VERTEX
  8
72_ARTEK_AKFURNITURE_D2_CH_000
 10
0.0621085
 20
-0.212863
 30
0
  0
SEQEND
  0
POLYLINE
  8
72_ARTEK_AKFURNITURE_D2_CH_000
 66
     1
 70
     0
 10
0.0
 20
0.0
 30
0.0
  0
VERTEX
  8
72_ARTEK_AKFURNITURE_D2_CH_000
 10
0.0671102
 20
-0.207188
 30
0
  0
VERTEX
  8
72_ARTEK_AKFURNITURE_D2_CH_000
 10
0.0673024
 20
-0.209139
 30
0
  0
VERTEX
  8
72_ARTEK_AKFURNITURE_D2_CH_000
 10
0.0678715
 20
-0.211015
 30
0
  0
VERTEX
  8
72_ARTEK_AKFURNITURE_D2_CH_000
 10
0.0687956
 20
-0.212744
 30
0
  0
VERTEX
  8
72_ARTEK_AKFURNITURE_D2_CH_000
 10
0.0700392
 20
-0.214259
 30
0
  0
VERTEX
  8
72_ARTEK_AKFURNITURE_D2_CH_000
 10
0.0715545
 20
-0.215503
 30
0
  0
VERTEX
  8
72_ARTEK_AKFURNITURE_D2_CH_000
 10
0.0732834
 20
-0.216427
 30
0
  0
VERTEX
  8
72_ARTEK_AKFURNITURE_D2_CH_000
 10
0.0751593
 20
-0.216996
 30
0
  0
VERTEX
  8
72_ARTEK_AKFURNITURE_D2_CH_000
 10
0.0771102
 20
-0.217188
 30
0
  0
VERTEX
  8
72_ARTEK_AKFURNITURE_D2_CH_000
 10
0.0790611
 20
-0.216996
 30
0
  0
VERTEX
  8
72_ARTEK_AKFURNITURE_D2_CH_000
 10
0.0809371
 20
-0.216427
 30
0
  0
VERTEX
  8
72_ARTEK_AKFURNITURE_D2_CH_000
 10
0.0826659
 20
-0.215503
 30
0
  0
VERTEX
  8
72_ARTEK_AKFURNITURE_D2_CH_000
 10
0.0841813
 20
-0.214259
 30
0
  0
VERTEX
  8
72_ARTEK_AKFURNITURE_D2_CH_000
 10
0.0854249
 20
-0.212744
 30
0
  0
VERTEX
  8
72_ARTEK_AKFURNITURE_D2_CH_000
 10
0.086349
 20
-0.211015
 30
0
  0
VERTEX
  8
72_ARTEK_AKFURNITURE_D2_CH_000
 10
0.0869181
 20
-0.209139
 30
0
  0
VERTEX
  8
72_ARTEK_AKFURNITURE_D2_CH_000
 10
0.0871102
 20
-0.207188
 30
0
  0
VERTEX
  8
72_ARTEK_AKFURNITURE_D2_CH_000
 10
0.0871102
 20
-0.207188
 30
0
  0
VERTEX
  8
72_ARTEK_AKFURNITURE_D2_CH_000
 10
0.0869181
 20
-0.205237
 30
0
  0
VERTEX
  8
72_ARTEK_AKFURNITURE_D2_CH_000
 10
0.086349
 20
-0.203361
 30
0
  0
VERTEX
  8
72_ARTEK_AKFURNITURE_D2_CH_000
 10
0.0854249
 20
-0.201632
 30
0
  0
VERTEX
  8
72_ARTEK_AKFURNITURE_D2_CH_000
 10
0.0841813
 20
-0.200117
 30
0
  0
VERTEX
  8
72_ARTEK_AKFURNITURE_D2_CH_000
 10
0.0826659
 20
-0.198873
 30
0
  0
VERTEX
  8
72_ARTEK_AKFURNITURE_D2_CH_000
 10
0.0809371
 20
-0.197949
 30
0
  0
VERTEX
  8
72_ARTEK_AKFURNITURE_D2_CH_000
 10
0.0790611
 20
-0.19738
 30
0
  0
VERTEX
  8
72_ARTEK_AKFURNITURE_D2_CH_000
 10
0.0771102
 20
-0.197188
 30
0
  0
VERTEX
  8
72_ARTEK_AKFURNITURE_D2_CH_000
 10
0.0751593
 20
-0.19738
 30
0
  0
VERTEX
  8
72_ARTEK_AKFURNITURE_D2_CH_000
 10
0.0732834
 20
-0.197949
 30
0
  0
VERTEX
  8
72_ARTEK_AKFURNITURE_D2_CH_000
 10
0.0715545
 20
-0.198873
 30
0
  0
VERTEX
  8
72_ARTEK_AKFURNITURE_D2_CH_000
 10
0.0700392
 20
-0.200117
 30
0
  0
VERTEX
  8
72_ARTEK_AKFURNITURE_D2_CH_000
 10
0.0687956
 20
-0.201632
 30
0
  0
VERTEX
  8
72_ARTEK_AKFURNITURE_D2_CH_000
 10
0.0678715
 20
-0.203361
 30
0
  0
VERTEX
  8
72_ARTEK_AKFURNITURE_D2_CH_000
 10
0.0673024
 20
-0.205237
 30
0
  0
VERTEX
  8
72_ARTEK_AKFURNITURE_D2_CH_000
 10
0.0671102
 20
-0.207188
 30
0
  0
SEQEND
  0
POLYLINE
  8
72_ARTEK_AKFURNITURE_D2_CH_000
 66
     1
 70
     0
 10
0.0
 20
0.0
 30
0.0
  0
VERTEX
  8
72_ARTEK_AKFURNITURE_D2_CH_000
 10
0.0671102
 20
-0.207188
 30
0
  0
VERTEX
  8
72_ARTEK_AKFURNITURE_D2_CH_000
 10
0.0673024
 20
-0.209139
 30
0
  0
VERTEX
  8
72_ARTEK_AKFURNITURE_D2_CH_000
 10
0.0678715
 20
-0.211015
 30
0
  0
VERTEX
  8
72_ARTEK_AKFURNITURE_D2_CH_000
 10
0.0687956
 20
-0.212744
 30
0
  0
VERTEX
  8
72_ARTEK_AKFURNITURE_D2_CH_000
 10
0.0700392
 20
-0.214259
 30
0
  0
VERTEX
  8
72_ARTEK_AKFURNITURE_D2_CH_000
 10
0.0715545
 20
-0.215503
 30
0
  0
VERTEX
  8
72_ARTEK_AKFURNITURE_D2_CH_000
 10
0.0732834
 20
-0.216427
 30
0
  0
VERTEX
  8
72_ARTEK_AKFURNITURE_D2_CH_000
 10
0.0751593
 20
-0.216996
 30
0
  0
VERTEX
  8
72_ARTEK_AKFURNITURE_D2_CH_000
 10
0.0771102
 20
-0.217188
 30
0
  0
VERTEX
  8
72_ARTEK_AKFURNITURE_D2_CH_000
 10
0.0790611
 20
-0.216996
 30
0
  0
VERTEX
  8
72_ARTEK_AKFURNITURE_D2_CH_000
 10
0.0809371
 20
-0.216427
 30
0
  0
VERTEX
  8
72_ARTEK_AKFURNITURE_D2_CH_000
 10
0.0826659
 20
-0.215503
 30
0
  0
VERTEX
  8
72_ARTEK_AKFURNITURE_D2_CH_000
 10
0.0841813
 20
-0.214259
 30
0
  0
VERTEX
  8
72_ARTEK_AKFURNITURE_D2_CH_000
 10
0.0854249
 20
-0.212744
 30
0
  0
VERTEX
  8
72_ARTEK_AKFURNITURE_D2_CH_000
 10
0.086349
 20
-0.211015
 30
0
  0
VERTEX
  8
72_ARTEK_AKFURNITURE_D2_CH_000
 10
0.0869181
 20
-0.209139
 30
0
  0
VERTEX
  8
72_ARTEK_AKFURNITURE_D2_CH_000
 10
0.0871102
 20
-0.207188
 30
0
  0
VERTEX
  8
72_ARTEK_AKFURNITURE_D2_CH_000
 10
0.0871102
 20
-0.207188
 30
0
  0
VERTEX
  8
72_ARTEK_AKFURNITURE_D2_CH_000
 10
0.0869181
 20
-0.205237
 30
0
  0
VERTEX
  8
72_ARTEK_AKFURNITURE_D2_CH_000
 10
0.086349
 20
-0.203361
 30
0
  0
VERTEX
  8
72_ARTEK_AKFURNITURE_D2_CH_000
 10
0.0854249
 20
-0.201632
 30
0
  0
VERTEX
  8
72_ARTEK_AKFURNITURE_D2_CH_000
 10
0.0841813
 20
-0.200117
 30
0
  0
VERTEX
  8
72_ARTEK_AKFURNITURE_D2_CH_000
 10
0.0826659
 20
-0.198873
 30
0
  0
VERTEX
  8
72_ARTEK_AKFURNITURE_D2_CH_000
 10
0.0809371
 20
-0.197949
 30
0
  0
VERTEX
  8
72_ARTEK_AKFURNITURE_D2_CH_000
 10
0.0790611
 20
-0.19738
 30
0
  0
VERTEX
  8
72_ARTEK_AKFURNITURE_D2_CH_000
 10
0.0771102
 20
-0.197188
 30
0
  0
VERTEX
  8
72_ARTEK_AKFURNITURE_D2_CH_000
 10
0.0751593
 20
-0.19738
 30
0
  0
VERTEX
  8
72_ARTEK_AKFURNITURE_D2_CH_000
 10
0.0732834
 20
-0.197949
 30
0
  0
VERTEX
  8
72_ARTEK_AKFURNITURE_D2_CH_000
 10
0.0715545
 20
-0.198873
 30
0
  0
VERTEX
  8
72_ARTEK_AKFURNITURE_D2_CH_000
 10
0.0700392
 20
-0.200117
 30
0
  0
VERTEX
  8
72_ARTEK_AKFURNITURE_D2_CH_000
 10
0.0687956
 20
-0.201632
 30
0
  0
VERTEX
  8
72_ARTEK_AKFURNITURE_D2_CH_000
 10
0.0678715
 20
-0.203361
 30
0
  0
VERTEX
  8
72_ARTEK_AKFURNITURE_D2_CH_000
 10
0.0673024
 20
-0.205237
 30
0
  0
VERTEX
  8
72_ARTEK_AKFURNITURE_D2_CH_000
 10
0.0671102
 20
-0.207188
 30
0
  0
SEQEND
  0
POLYLINE
  8
72_ARTEK_AKFURNITURE_D2_CH_000
 66
     1
 70
     0
 10
0.0
 20
0.0
 30
0.0
  0
VERTEX
  8
72_ARTEK_AKFURNITURE_D2_CH_000
 10
0.516091
 20
-0.212863
 30
0
  0
VERTEX
  8
72_ARTEK_AKFURNITURE_D2_CH_000
 10
0.516093
 20
-0.212496
 30
0
  0
VERTEX
  8
72_ARTEK_AKFURNITURE_D2_CH_000
 10
0.51608
 20
-0.198657
 30
0
  0
VERTEX
  8
72_ARTEK_AKFURNITURE_D2_CH_000
 10
0.516093
 20
-0.184819
 30
0
  0
VERTEX
  8
72_ARTEK_AKFURNITURE_D2_CH_000
 10
0.516091
 20
-0.184452
 30
0
  0
VERTEX
  8
72_ARTEK_AKFURNITURE_D2_CH_000
 10
0.516093
 20
-0.184086
 30
0
  0
VERTEX
  8
72_ARTEK_AKFURNITURE_D2_CH_000
 10
0.516095
 20
-0.183721
 30
0
  0
VERTEX
  8
72_ARTEK_AKFURNITURE_D2_CH_000
 10
0.516098
 20
-0.183358
 30
0
  0
VERTEX
  8
72_ARTEK_AKFURNITURE_D2_CH_000
 10
0.5161
 20
-0.182996
 30
0
  0
VERTEX
  8
72_ARTEK_AKFURNITURE_D2_CH_000
 10
0.516098
 20
-0.182636
 30
0
  0
VERTEX
  8
72_ARTEK_AKFURNITURE_D2_CH_000
 10
0.516092
 20
-0.182277
 30
0
  0
VERTEX
  8
72_ARTEK_AKFURNITURE_D2_CH_000
 10
0.516079
 20
-0.18192
 30
0
  0
VERTEX
  8
72_ARTEK_AKFURNITURE_D2_CH_000
 10
0.516058
 20
-0.181564
 30
0
  0
VERTEX
  8
72_ARTEK_AKFURNITURE_D2_CH_000
 10
0.516028
 20
-0.18121
 30
0
  0
VERTEX
  8
72_ARTEK_AKFURNITURE_D2_CH_000
 10
0.515986
 20
-0.180858
 30
0
  0
VERTEX
  8
72_ARTEK_AKFURNITURE_D2_CH_000
 10
0.515932
 20
-0.180508
 30
0
  0
VERTEX
  8
72_ARTEK_AKFURNITURE_D2_CH_000
 10
0.515863
 20
-0.18016
 30
0
  0
VERTEX
  8
72_ARTEK_AKFURNITURE_D2_CH_000
 10
0.515779
 20
-0.179813
 30
0
  0
VERTEX
  8
72_ARTEK_AKFURNITURE_D2_CH_000
 10
0.515677
 20
-0.179468
 30
0
  0
VERTEX
  8
72_ARTEK_AKFURNITURE_D2_CH_000
 10
0.515556
 20
-0.179125
 30
0
  0
VERTEX
  8
72_ARTEK_AKFURNITURE_D2_CH_000
 10
0.515413
 20
-0.178785
 30
0
  0
VERTEX
  8
72_ARTEK_AKFURNITURE_D2_CH_000
 10
0.515249
 20
-0.178446
 30
0
  0
VERTEX
  8
72_ARTEK_AKFURNITURE_D2_CH_000
 10
0.515061
 20
-0.17811
 30
0
  0
VERTEX
  8
72_ARTEK_AKFURNITURE_D2_CH_000
 10
0.514847
 20
-0.177775
 30
0
  0
VERTEX
  8
72_ARTEK_AKFURNITURE_D2_CH_000
 10
0.514657
 20
-0.177521
 30
0
  0
VERTEX
  8
72_ARTEK_AKFURNITURE_D2_CH_000
 10
0.514441
 20
-0.177275
 30
0
  0
VERTEX
  8
72_ARTEK_AKFURNITURE_D2_CH_000
 10
0.5142
 20
-0.177037
 30
0
  0
VERTEX
  8
72_ARTEK_AKFURNITURE_D2_CH_000
 10
0.513937
 20
-0.176807
 30
0
  0
VERTEX
  8
72_ARTEK_AKFURNITURE_D2_CH_000
 10
0.513655
 20
-0.176586
 30
0
  0
VERTEX
  8
72_ARTEK_AKFURNITURE_D2_CH_000
 10
0.513355
 20
-0.176374
 30
0
  0
VERTEX
  8
72_ARTEK_AKFURNITURE_D2_CH_000
 10
0.51304
 20
-0.176171
 30
0
  0
VERTEX
  8
72_ARTEK_AKFURNITURE_D2_CH_000
 10
0.512713
 20
-0.175977
 30
0
  0
VERTEX
  8
72_ARTEK_AKFURNITURE_D2_CH_000
 10
0.512376
 20
-0.175793
 30
0
  0
VERTEX
  8
72_ARTEK_AKFURNITURE_D2_CH_000
 10
0.51203
 20
-0.175619
 30
0
  0
VERTEX
  8
72_ARTEK_AKFURNITURE_D2_CH_000
 10
0.51168
 20
-0.175455
 30
0
  0
VERTEX
  8
72_ARTEK_AKFURNITURE_D2_CH_000
 10
0.511326
 20
-0.175302
 30
0
  0
VERTEX
  8
72_ARTEK_AKFURNITURE_D2_CH_000
 10
0.510972
 20
-0.175159
 30
0
  0
VERTEX
  8
72_ARTEK_AKFURNITURE_D2_CH_000
 10
0.510619
 20
-0.175027
 30
0
  0
VERTEX
  8
72_ARTEK_AKFURNITURE_D2_CH_000
 10
0.51027
 20
-0.174907
 30
0
  0
VERTEX
  8
72_ARTEK_AKFURNITURE_D2_CH_000
 10
0.509928
 20
-0.174797
 30
0
  0
VERTEX
  8
72_ARTEK_AKFURNITURE_D2_CH_000
 10
0.509594
 20
-0.1747
 30
0
  0
VERTEX
  8
72_ARTEK_AKFURNITURE_D2_CH_000
 10
0.509271
 20
-0.174615
 30
0
  0
VERTEX
  8
72_ARTEK_AKFURNITURE_D2_CH_000
 10
0.508962
 20
-0.174542
 30
0
  0
VERTEX
  8
72_ARTEK_AKFURNITURE_D2_CH_000
 10
0.508668
 20
-0.174481
 30
0
  0
VERTEX
  8
72_ARTEK_AKFURNITURE_D2_CH_000
 10
0.507561
 20
-0.174279
 30
0
  0
VERTEX
  8
72_ARTEK_AKFURNITURE_D2_CH_000
 10
0.506445
 20
-0.174098
 30
0
  0
VERTEX
  8
72_ARTEK_AKFURNITURE_D2_CH_000
 10
0.505324
 20
-0.173939
 30
0
  0
VERTEX
  8
72_ARTEK_AKFURNITURE_D2_CH_000
 10
0.504198
 20
-0.173806
 30
0
  0
VERTEX
  8
72_ARTEK_AKFURNITURE_D2_CH_000
 10
0.50307
 20
-0.173701
 30
0
  0
VERTEX
  8
72_ARTEK_AKFURNITURE_D2_CH_000
 10
0.501943
 20
-0.17363
 30
0
  0
VERTEX
  8
72_ARTEK_AKFURNITURE_D2_CH_000
 10
0.501084
 20
-0.173602
 30
0
  0
VERTEX
  8
72_ARTEK_AKFURNITURE_D2_CH_000
 10
0.500225
 20
-0.17363
 30
0
  0
VERTEX
  8
72_ARTEK_AKFURNITURE_D2_CH_000
 10
0.499097
 20
-0.173701
 30
0
  0
VERTEX
  8
72_ARTEK_AKFURNITURE_D2_CH_000
 10
0.497969
 20
-0.173806
 30
0
  0
VERTEX
  8
72_ARTEK_AKFURNITURE_D2_CH_000
 10
0.496843
 20
-0.173939
 30
0
  0
VERTEX
  8
72_ARTEK_AKFURNITURE_D2_CH_000
 10
0.495722
 20
-0.174098
 30
0
  0
VERTEX
  8
72_ARTEK_AKFURNITURE_D2_CH_000
 10
0.494607
 20
-0.174279
 30
0
  0
VERTEX
  8
72_ARTEK_AKFURNITURE_D2_CH_000
 10
0.493499
 20
-0.174481
 30
0
  0
VERTEX
  8
72_ARTEK_AKFURNITURE_D2_CH_000
 10
0.493206
 20
-0.174542
 30
0
  0
VERTEX
  8
72_ARTEK_AKFURNITURE_D2_CH_000
 10
0.492896
 20
-0.174615
 30
0
  0
VERTEX
  8
72_ARTEK_AKFURNITURE_D2_CH_000
 10
0.492573
 20
-0.1747
 30
0
  0
VERTEX
  8
72_ARTEK_AKFURNITURE_D2_CH_000
 10
0.49224
 20
-0.174797
 30
0
  0
VERTEX
  8
72_ARTEK_AKFURNITURE_D2_CH_000
 10
0.491897
 20
-0.174907
 30
0
  0
VERTEX
  8
72_ARTEK_AKFURNITURE_D2_CH_000
 10
0.491548
 20
-0.175027
 30
0
  0
VERTEX
  8
72_ARTEK_AKFURNITURE_D2_CH_000
 10
0.491196
 20
-0.175159
 30
0
  0
VERTEX
  8
72_ARTEK_AKFURNITURE_D2_CH_000
 10
0.490841
 20
-0.175302
 30
0
  0
VERTEX
  8
72_ARTEK_AKFURNITURE_D2_CH_000
 10
0.490487
 20
-0.175455
 30
0
  0
VERTEX
  8
72_ARTEK_AKFURNITURE_D2_CH_000
 10
0.490137
 20
-0.175619
 30
0
  0
VERTEX
  8
72_ARTEK_AKFURNITURE_D2_CH_000
 10
0.489792
 20
-0.175793
 30
0
  0
VERTEX
  8
72_ARTEK_AKFURNITURE_D2_CH_000
 10
0.489454
 20
-0.175977
 30
0
  0
VERTEX
  8
72_ARTEK_AKFURNITURE_D2_CH_000
 10
0.489127
 20
-0.176171
 30
0
  0
VERTEX
  8
72_ARTEK_AKFURNITURE_D2_CH_000
 10
0.488812
 20
-0.176374
 30
0
  0
VERTEX
  8
72_ARTEK_AKFURNITURE_D2_CH_000
 10
0.488513
 20
-0.176586
 30
0
  0
VERTEX
  8
72_ARTEK_AKFURNITURE_D2_CH_000
 10
0.488231
 20
-0.176807
 30
0
  0
VERTEX
  8
72_ARTEK_AKFURNITURE_D2_CH_000
 10
0.487967
 20
-0.177037
 30
0
  0
VERTEX
  8
72_ARTEK_AKFURNITURE_D2_CH_000
 10
0.487727
 20
-0.177275
 30
0
  0
VERTEX
  8
72_ARTEK_AKFURNITURE_D2_CH_000
 10
0.48751
 20
-0.177521
 30
0
  0
VERTEX
  8
72_ARTEK_AKFURNITURE_D2_CH_000
 10
0.48732
 20
-0.177775
 30
0
  0
VERTEX
  8
72_ARTEK_AKFURNITURE_D2_CH_000
 10
0.487107
 20
-0.17811
 30
0
  0
VERTEX
  8
72_ARTEK_AKFURNITURE_D2_CH_000
 10
0.486918
 20
-0.178446
 30
0
  0
VERTEX
  8
72_ARTEK_AKFURNITURE_D2_CH_000
 10
0.486754
 20
-0.178785
 30
0
  0
VERTEX
  8
72_ARTEK_AKFURNITURE_D2_CH_000
 10
0.486612
 20
-0.179125
 30
0
  0
VERTEX
  8
72_ARTEK_AKFURNITURE_D2_CH_000
 10
0.486491
 20
-0.179468
 30
0
  0
VERTEX
  8
72_ARTEK_AKFURNITURE_D2_CH_000
 10
0.486389
 20
-0.179813
 30
0
  0
VERTEX
  8
72_ARTEK_AKFURNITURE_D2_CH_000
 10
0.486304
 20
-0.18016
 30
0
  0
VERTEX
  8
72_ARTEK_AKFURNITURE_D2_CH_000
 10
0.486236
 20
-0.180508
 30
0
  0
VERTEX
  8
72_ARTEK_AKFURNITURE_D2_CH_000
 10
0.486181
 20
-0.180858
 30
0
  0
VERTEX
  8
72_ARTEK_AKFURNITURE_D2_CH_000
 10
0.48614
 20
-0.18121
 30
0
  0
VERTEX
  8
72_ARTEK_AKFURNITURE_D2_CH_000
 10
0.48611
 20
-0.181564
 30
0
  0
VERTEX
  8
72_ARTEK_AKFURNITURE_D2_CH_000
 10
0.486089
 20
-0.18192
 30
0
  0
VERTEX
  8
72_ARTEK_AKFURNITURE_D2_CH_000
 10
0.486076
 20
-0.182277
 30
0
  0
VERTEX
  8
72_ARTEK_AKFURNITURE_D2_CH_000
 10
0.486069
 20
-0.182636
 30
0
  0
VERTEX
  8
72_ARTEK_AKFURNITURE_D2_CH_000
 10
0.486067
 20
-0.182996
 30
0
  0
VERTEX
  8
72_ARTEK_AKFURNITURE_D2_CH_000
 10
0.486069
 20
-0.183358
 30
0
  0
VERTEX
  8
72_ARTEK_AKFURNITURE_D2_CH_000
 10
0.486072
 20
-0.183721
 30
0
  0
VERTEX
  8
72_ARTEK_AKFURNITURE_D2_CH_000
 10
0.486075
 20
-0.184086
 30
0
  0
VERTEX
  8
72_ARTEK_AKFURNITURE_D2_CH_000
 10
0.486076
 20
-0.184452
 30
0
  0
VERTEX
  8
72_ARTEK_AKFURNITURE_D2_CH_000
 10
0.486074
 20
-0.184819
 30
0
  0
VERTEX
  8
72_ARTEK_AKFURNITURE_D2_CH_000
 10
0.486088
 20
-0.198657
 30
0
  0
VERTEX
  8
72_ARTEK_AKFURNITURE_D2_CH_000
 10
0.486074
 20
-0.212496
 30
0
  0
VERTEX
  8
72_ARTEK_AKFURNITURE_D2_CH_000
 10
0.486076
 20
-0.212863
 30
0
  0
VERTEX
  8
72_ARTEK_AKFURNITURE_D2_CH_000
 10
0.486075
 20
-0.213229
 30
0
  0
VERTEX
  8
72_ARTEK_AKFURNITURE_D2_CH_000
 10
0.486072
 20
-0.213594
 30
0
  0
VERTEX
  8
72_ARTEK_AKFURNITURE_D2_CH_000
 10
0.486069
 20
-0.213957
 30
0
  0
VERTEX
  8
72_ARTEK_AKFURNITURE_D2_CH_000
 10
0.486067
 20
-0.214319
 30
0
  0
VERTEX
  8
72_ARTEK_AKFURNITURE_D2_CH_000
 10
0.486069
 20
-0.214679
 30
0
  0
VERTEX
  8
72_ARTEK_AKFURNITURE_D2_CH_000
 10
0.486076
 20
-0.215038
 30
0
  0
VERTEX
  8
72_ARTEK_AKFURNITURE_D2_CH_000
 10
0.486089
 20
-0.215395
 30
0
  0
VERTEX
  8
72_ARTEK_AKFURNITURE_D2_CH_000
 10
0.48611
 20
-0.215751
 30
0
  0
VERTEX
  8
72_ARTEK_AKFURNITURE_D2_CH_000
 10
0.48614
 20
-0.216105
 30
0
  0
VERTEX
  8
72_ARTEK_AKFURNITURE_D2_CH_000
 10
0.486181
 20
-0.216457
 30
0
  0
VERTEX
  8
72_ARTEK_AKFURNITURE_D2_CH_000
 10
0.486236
 20
-0.216807
 30
0
  0
VERTEX
  8
72_ARTEK_AKFURNITURE_D2_CH_000
 10
0.486304
 20
-0.217155
 30
0
  0
VERTEX
  8
72_ARTEK_AKFURNITURE_D2_CH_000
 10
0.486389
 20
-0.217502
 30
0
  0
VERTEX
  8
72_ARTEK_AKFURNITURE_D2_CH_000
 10
0.486491
 20
-0.217847
 30
0
  0
VERTEX
  8
72_ARTEK_AKFURNITURE_D2_CH_000
 10
0.486612
 20
-0.21819
 30
0
  0
VERTEX
  8
72_ARTEK_AKFURNITURE_D2_CH_000
 10
0.486754
 20
-0.21853
 30
0
  0
VERTEX
  8
72_ARTEK_AKFURNITURE_D2_CH_000
 10
0.486918
 20
-0.218869
 30
0
  0
VERTEX
  8
72_ARTEK_AKFURNITURE_D2_CH_000
 10
0.487107
 20
-0.219205
 30
0
  0
VERTEX
  8
72_ARTEK_AKFURNITURE_D2_CH_000
 10
0.48732
 20
-0.21954
 30
0
  0
VERTEX
  8
72_ARTEK_AKFURNITURE_D2_CH_000
 10
0.48751
 20
-0.219794
 30
0
  0
VERTEX
  8
72_ARTEK_AKFURNITURE_D2_CH_000
 10
0.487727
 20
-0.22004
 30
0
  0
VERTEX
  8
72_ARTEK_AKFURNITURE_D2_CH_000
 10
0.487967
 20
-0.220278
 30
0
  0
VERTEX
  8
72_ARTEK_AKFURNITURE_D2_CH_000
 10
0.488231
 20
-0.220508
 30
0
  0
VERTEX
  8
72_ARTEK_AKFURNITURE_D2_CH_000
 10
0.488513
 20
-0.220729
 30
0
  0
VERTEX
  8
72_ARTEK_AKFURNITURE_D2_CH_000
 10
0.488812
 20
-0.220941
 30
0
  0
VERTEX
  8
72_ARTEK_AKFURNITURE_D2_CH_000
 10
0.489127
 20
-0.221144
 30
0
  0
VERTEX
  8
72_ARTEK_AKFURNITURE_D2_CH_000
 10
0.489454
 20
-0.221338
 30
0
  0
VERTEX
  8
72_ARTEK_AKFURNITURE_D2_CH_000
 10
0.489792
 20
-0.221522
 30
0
  0
VERTEX
  8
72_ARTEK_AKFURNITURE_D2_CH_000
 10
0.490137
 20
-0.221696
 30
0
  0
VERTEX
  8
72_ARTEK_AKFURNITURE_D2_CH_000
 10
0.490487
 20
-0.22186
 30
0
  0
VERTEX
  8
72_ARTEK_AKFURNITURE_D2_CH_000
 10
0.490841
 20
-0.222013
 30
0
  0
VERTEX
  8
72_ARTEK_AKFURNITURE_D2_CH_000
 10
0.491196
 20
-0.222156
 30
0
  0
VERTEX
  8
72_ARTEK_AKFURNITURE_D2_CH_000
 10
0.491548
 20
-0.222288
 30
0
  0
VERTEX
  8
72_ARTEK_AKFURNITURE_D2_CH_000
 10
0.491897
 20
-0.222408
 30
0
  0
VERTEX
  8
72_ARTEK_AKFURNITURE_D2_CH_000
 10
0.49224
 20
-0.222518
 30
0
  0
VERTEX
  8
72_ARTEK_AKFURNITURE_D2_CH_000
 10
0.492573
 20
-0.222615
 30
0
  0
VERTEX
  8
72_ARTEK_AKFURNITURE_D2_CH_000
 10
0.492896
 20
-0.2227
 30
0
  0
VERTEX
  8
72_ARTEK_AKFURNITURE_D2_CH_000
 10
0.493206
 20
-0.222773
 30
0
  0
VERTEX
  8
72_ARTEK_AKFURNITURE_D2_CH_000
 10
0.493499
 20
-0.222834
 30
0
  0
VERTEX
  8
72_ARTEK_AKFURNITURE_D2_CH_000
 10
0.494607
 20
-0.223035
 30
0
  0
VERTEX
  8
72_ARTEK_AKFURNITURE_D2_CH_000
 10
0.495722
 20
-0.223217
 30
0
  0
VERTEX
  8
72_ARTEK_AKFURNITURE_D2_CH_000
 10
0.496843
 20
-0.223376
 30
0
  0
VERTEX
  8
72_ARTEK_AKFURNITURE_D2_CH_000
 10
0.497969
 20
-0.223509
 30
0
  0
VERTEX
  8
72_ARTEK_AKFURNITURE_D2_CH_000
 10
0.499097
 20
-0.223613
 30
0
  0
VERTEX
  8
72_ARTEK_AKFURNITURE_D2_CH_000
 10
0.500225
 20
-0.223685
 30
0
  0
VERTEX
  8
72_ARTEK_AKFURNITURE_D2_CH_000
 10
0.501084
 20
-0.223713
 30
0
  0
VERTEX
  8
72_ARTEK_AKFURNITURE_D2_CH_000
 10
0.501943
 20
-0.223685
 30
0
  0
VERTEX
  8
72_ARTEK_AKFURNITURE_D2_CH_000
 10
0.50307
 20
-0.223613
 30
0
  0
VERTEX
  8
72_ARTEK_AKFURNITURE_D2_CH_000
 10
0.504198
 20
-0.223509
 30
0
  0
VERTEX
  8
72_ARTEK_AKFURNITURE_D2_CH_000
 10
0.505324
 20
-0.223376
 30
0
  0
VERTEX
  8
72_ARTEK_AKFURNITURE_D2_CH_000
 10
0.506445
 20
-0.223217
 30
0
  0
VERTEX
  8
72_ARTEK_AKFURNITURE_D2_CH_000
 10
0.507561
 20
-0.223035
 30
0
  0
VERTEX
  8
72_ARTEK_AKFURNITURE_D2_CH_000
 10
0.508668
 20
-0.222834
 30
0
  0
VERTEX
  8
72_ARTEK_AKFURNITURE_D2_CH_000
 10
0.508962
 20
-0.222773
 30
0
  0
VERTEX
  8
72_ARTEK_AKFURNITURE_D2_CH_000
 10
0.509271
 20
-0.2227
 30
0
  0
VERTEX
  8
72_ARTEK_AKFURNITURE_D2_CH_000
 10
0.509594
 20
-0.222615
 30
0
  0
VERTEX
  8
72_ARTEK_AKFURNITURE_D2_CH_000
 10
0.509928
 20
-0.222518
 30
0
  0
VERTEX
  8
72_ARTEK_AKFURNITURE_D2_CH_000
 10
0.51027
 20
-0.222408
 30
0
  0
VERTEX
  8
72_ARTEK_AKFURNITURE_D2_CH_000
 10
0.510619
 20
-0.222288
 30
0
  0
VERTEX
  8
72_ARTEK_AKFURNITURE_D2_CH_000
 10
0.510972
 20
-0.222156
 30
0
  0
VERTEX
  8
72_ARTEK_AKFURNITURE_D2_CH_000
 10
0.511326
 20
-0.222013
 30
0
  0
VERTEX
  8
72_ARTEK_AKFURNITURE_D2_CH_000
 10
0.51168
 20
-0.22186
 30
0
  0
VERTEX
  8
72_ARTEK_AKFURNITURE_D2_CH_000
 10
0.51203
 20
-0.221696
 30
0
  0
VERTEX
  8
72_ARTEK_AKFURNITURE_D2_CH_000
 10
0.512376
 20
-0.221522
 30
0
  0
VERTEX
  8
72_ARTEK_AKFURNITURE_D2_CH_000
 10
0.512713
 20
-0.221338
 30
0
  0
VERTEX
  8
72_ARTEK_AKFURNITURE_D2_CH_000
 10
0.51304
 20
-0.221144
 30
0
  0
VERTEX
  8
72_ARTEK_AKFURNITURE_D2_CH_000
 10
0.513355
 20
-0.220941
 30
0
  0
VERTEX
  8
72_ARTEK_AKFURNITURE_D2_CH_000
 10
0.513655
 20
-0.220729
 30
0
  0
VERTEX
  8
72_ARTEK_AKFURNITURE_D2_CH_000
 10
0.513937
 20
-0.220508
 30
0
  0
VERTEX
  8
72_ARTEK_AKFURNITURE_D2_CH_000
 10
0.5142
 20
-0.220278
 30
0
  0
VERTEX
  8
72_ARTEK_AKFURNITURE_D2_CH_000
 10
0.514441
 20
-0.22004
 30
0
  0
VERTEX
  8
72_ARTEK_AKFURNITURE_D2_CH_000
 10
0.514657
 20
-0.219794
 30
0
  0
VERTEX
  8
72_ARTEK_AKFURNITURE_D2_CH_000
 10
0.514847
 20
-0.21954
 30
0
  0
VERTEX
  8
72_ARTEK_AKFURNITURE_D2_CH_000
 10
0.515061
 20
-0.219205
 30
0
  0
VERTEX
  8
72_ARTEK_AKFURNITURE_D2_CH_000
 10
0.515249
 20
-0.218869
 30
0
  0
VERTEX
  8
72_ARTEK_AKFURNITURE_D2_CH_000
 10
0.515413
 20
-0.21853
 30
0
  0
VERTEX
  8
72_ARTEK_AKFURNITURE_D2_CH_000
 10
0.515556
 20
-0.21819
 30
0
  0
VERTEX
  8
72_ARTEK_AKFURNITURE_D2_CH_000
 10
0.515677
 20
-0.217847
 30
0
  0
VERTEX
  8
72_ARTEK_AKFURNITURE_D2_CH_000
 10
0.515779
 20
-0.217502
 30
0
  0
VERTEX
  8
72_ARTEK_AKFURNITURE_D2_CH_000
 10
0.515863
 20
-0.217155
 30
0
  0
VERTEX
  8
72_ARTEK_AKFURNITURE_D2_CH_000
 10
0.515932
 20
-0.216807
 30
0
  0
VERTEX
  8
72_ARTEK_AKFURNITURE_D2_CH_000
 10
0.515986
 20
-0.216457
 30
0
  0
VERTEX
  8
72_ARTEK_AKFURNITURE_D2_CH_000
 10
0.516028
 20
-0.216105
 30
0
  0
VERTEX
  8
72_ARTEK_AKFURNITURE_D2_CH_000
 10
0.516058
 20
-0.215751
 30
0
  0
VERTEX
  8
72_ARTEK_AKFURNITURE_D2_CH_000
 10
0.516079
 20
-0.215395
 30
0
  0
VERTEX
  8
72_ARTEK_AKFURNITURE_D2_CH_000
 10
0.516092
 20
-0.215038
 30
0
  0
VERTEX
  8
72_ARTEK_AKFURNITURE_D2_CH_000
 10
0.516098
 20
-0.214679
 30
0
  0
VERTEX
  8
72_ARTEK_AKFURNITURE_D2_CH_000
 10
0.5161
 20
-0.214319
 30
0
  0
VERTEX
  8
72_ARTEK_AKFURNITURE_D2_CH_000
 10
0.516098
 20
-0.213957
 30
0
  0
VERTEX
  8
72_ARTEK_AKFURNITURE_D2_CH_000
 10
0.516095
 20
-0.213594
 30
0
  0
VERTEX
  8
72_ARTEK_AKFURNITURE_D2_CH_000
 10
0.516093
 20
-0.213229
 30
0
  0
VERTEX
  8
72_ARTEK_AKFURNITURE_D2_CH_000
 10
0.516091
 20
-0.212863
 30
0
  0
SEQEND
  0
POLYLINE
  8
72_ARTEK_AKFURNITURE_D2_CH_000
 66
     1
 70
     0
 10
0.0
 20
0.0
 30
0.0
  0
VERTEX
  8
72_ARTEK_AKFURNITURE_D2_CH_000
 10
0.51109
 20
-0.207188
 30
0
  0
VERTEX
  8
72_ARTEK_AKFURNITURE_D2_CH_000
 10
0.510898
 20
-0.209139
 30
0
  0
VERTEX
  8
72_ARTEK_AKFURNITURE_D2_CH_000
 10
0.510328
 20
-0.211015
 30
0
  0
VERTEX
  8
72_ARTEK_AKFURNITURE_D2_CH_000
 10
0.509404
 20
-0.212744
 30
0
  0
VERTEX
  8
72_ARTEK_AKFURNITURE_D2_CH_000
 10
0.508161
 20
-0.214259
 30
0
  0
VERTEX
  8
72_ARTEK_AKFURNITURE_D2_CH_000
 10
0.506645
 20
-0.215503
 30
0
  0
VERTEX
  8
72_ARTEK_AKFURNITURE_D2_CH_000
 10
0.504917
 20
-0.216427
 30
0
  0
VERTEX
  8
72_ARTEK_AKFURNITURE_D2_CH_000
 10
0.503041
 20
-0.216996
 30
0
  0
VERTEX
  8
72_ARTEK_AKFURNITURE_D2_CH_000
 10
0.50109
 20
-0.217188
 30
0
  0
VERTEX
  8
72_ARTEK_AKFURNITURE_D2_CH_000
 10
0.499139
 20
-0.216996
 30
0
  0
VERTEX
  8
72_ARTEK_AKFURNITURE_D2_CH_000
 10
0.497263
 20
-0.216427
 30
0
  0
VERTEX
  8
72_ARTEK_AKFURNITURE_D2_CH_000
 10
0.495534
 20
-0.215503
 30
0
  0
VERTEX
  8
72_ARTEK_AKFURNITURE_D2_CH_000
 10
0.494019
 20
-0.214259
 30
0
  0
VERTEX
  8
72_ARTEK_AKFURNITURE_D2_CH_000
 10
0.492775
 20
-0.212744
 30
0
  0
VERTEX
  8
72_ARTEK_AKFURNITURE_D2_CH_000
 10
0.491851
 20
-0.211015
 30
0
  0
VERTEX
  8
72_ARTEK_AKFURNITURE_D2_CH_000
 10
0.491282
 20
-0.209139
 30
0
  0
VERTEX
  8
72_ARTEK_AKFURNITURE_D2_CH_000
 10
0.49109
 20
-0.207188
 30
0
  0
VERTEX
  8
72_ARTEK_AKFURNITURE_D2_CH_000
 10
0.49109
 20
-0.207188
 30
0
  0
VERTEX
  8
72_ARTEK_AKFURNITURE_D2_CH_000
 10
0.491282
 20
-0.205237
 30
0
  0
VERTEX
  8
72_ARTEK_AKFURNITURE_D2_CH_000
 10
0.491851
 20
-0.203361
 30
0
  0
VERTEX
  8
72_ARTEK_AKFURNITURE_D2_CH_000
 10
0.492775
 20
-0.201632
 30
0
  0
VERTEX
  8
72_ARTEK_AKFURNITURE_D2_CH_000
 10
0.494019
 20
-0.200117
 30
0
  0
VERTEX
  8
72_ARTEK_AKFURNITURE_D2_CH_000
 10
0.495534
 20
-0.198873
 30
0
  0
VERTEX
  8
72_ARTEK_AKFURNITURE_D2_CH_000
 10
0.497263
 20
-0.197949
 30
0
  0
VERTEX
  8
72_ARTEK_AKFURNITURE_D2_CH_000
 10
0.499139
 20
-0.19738
 30
0
  0
VERTEX
  8
72_ARTEK_AKFURNITURE_D2_CH_000
 10
0.50109
 20
-0.197188
 30
0
  0
VERTEX
  8
72_ARTEK_AKFURNITURE_D2_CH_000
 10
0.503041
 20
-0.19738
 30
0
  0
VERTEX
  8
72_ARTEK_AKFURNITURE_D2_CH_000
 10
0.504917
 20
-0.197949
 30
0
  0
VERTEX
  8
72_ARTEK_AKFURNITURE_D2_CH_000
 10
0.506645
 20
-0.198873
 30
0
  0
VERTEX
  8
72_ARTEK_AKFURNITURE_D2_CH_000
 10
0.508161
 20
-0.200117
 30
0
  0
VERTEX
  8
72_ARTEK_AKFURNITURE_D2_CH_000
 10
0.509404
 20
-0.201632
 30
0
  0
VERTEX
  8
72_ARTEK_AKFURNITURE_D2_CH_000
 10
0.510328
 20
-0.203361
 30
0
  0
VERTEX
  8
72_ARTEK_AKFURNITURE_D2_CH_000
 10
0.510898
 20
-0.205237
 30
0
  0
VERTEX
  8
72_ARTEK_AKFURNITURE_D2_CH_000
 10
0.51109
 20
-0.207188
 30
0
  0
SEQEND
  0
POLYLINE
  8
72_ARTEK_AKFURNITURE_D2_CH_000
 66
     1
 70
     0
 10
0.0
 20
0.0
 30
0.0
  0
VERTEX
  8
72_ARTEK_AKFURNITURE_D2_CH_000
 10
0.51109
 20
-0.207188
 30
0
  0
VERTEX
  8
72_ARTEK_AKFURNITURE_D2_CH_000
 10
0.510898
 20
-0.209139
 30
0
  0
VERTEX
  8
72_ARTEK_AKFURNITURE_D2_CH_000
 10
0.510328
 20
-0.211015
 30
0
  0
VERTEX
  8
72_ARTEK_AKFURNITURE_D2_CH_000
 10
0.509404
 20
-0.212744
 30
0
  0
VERTEX
  8
72_ARTEK_AKFURNITURE_D2_CH_000
 10
0.508161
 20
-0.214259
 30
0
  0
VERTEX
  8
72_ARTEK_AKFURNITURE_D2_CH_000
 10
0.506645
 20
-0.215503
 30
0
  0
VERTEX
  8
72_ARTEK_AKFURNITURE_D2_CH_000
 10
0.504917
 20
-0.216427
 30
0
  0
VERTEX
  8
72_ARTEK_AKFURNITURE_D2_CH_000
 10
0.503041
 20
-0.216996
 30
0
  0
VERTEX
  8
72_ARTEK_AKFURNITURE_D2_CH_000
 10
0.50109
 20
-0.217188
 30
0
  0
VERTEX
  8
72_ARTEK_AKFURNITURE_D2_CH_000
 10
0.499139
 20
-0.216996
 30
0
  0
VERTEX
  8
72_ARTEK_AKFURNITURE_D2_CH_000
 10
0.497263
 20
-0.216427
 30
0
  0
VERTEX
  8
72_ARTEK_AKFURNITURE_D2_CH_000
 10
0.495534
 20
-0.215503
 30
0
  0
VERTEX
  8
72_ARTEK_AKFURNITURE_D2_CH_000
 10
0.494019
 20
-0.214259
 30
0
  0
VERTEX
  8
72_ARTEK_AKFURNITURE_D2_CH_000
 10
0.492775
 20
-0.212744
 30
0
  0
VERTEX
  8
72_ARTEK_AKFURNITURE_D2_CH_000
 10
0.491851
 20
-0.211015
 30
0
  0
VERTEX
  8
72_ARTEK_AKFURNITURE_D2_CH_000
 10
0.491282
 20
-0.209139
 30
0
  0
VERTEX
  8
72_ARTEK_AKFURNITURE_D2_CH_000
 10
0.49109
 20
-0.207188
 30
0
  0
VERTEX
  8
72_ARTEK_AKFURNITURE_D2_CH_000
 10
0.49109
 20
-0.207188
 30
0
  0
VERTEX
  8
72_ARTEK_AKFURNITURE_D2_CH_000
 10
0.491282
 20
-0.205237
 30
0
  0
VERTEX
  8
72_ARTEK_AKFURNITURE_D2_CH_000
 10
0.491851
 20
-0.203361
 30
0
  0
VERTEX
  8
72_ARTEK_AKFURNITURE_D2_CH_000
 10
0.492775
 20
-0.201632
 30
0
  0
VERTEX
  8
72_ARTEK_AKFURNITURE_D2_CH_000
 10
0.494019
 20
-0.200117
 30
0
  0
VERTEX
  8
72_ARTEK_AKFURNITURE_D2_CH_000
 10
0.495534
 20
-0.198873
 30
0
  0
VERTEX
  8
72_ARTEK_AKFURNITURE_D2_CH_000
 10
0.497263
 20
-0.197949
 30
0
  0
VERTEX
  8
72_ARTEK_AKFURNITURE_D2_CH_000
 10
0.499139
 20
-0.19738
 30
0
  0
VERTEX
  8
72_ARTEK_AKFURNITURE_D2_CH_000
 10
0.50109
 20
-0.197188
 30
0
  0
VERTEX
  8
72_ARTEK_AKFURNITURE_D2_CH_000
 10
0.503041
 20
-0.19738
 30
0
  0
VERTEX
  8
72_ARTEK_AKFURNITURE_D2_CH_000
 10
0.504917
 20
-0.197949
 30
0
  0
VERTEX
  8
72_ARTEK_AKFURNITURE_D2_CH_000
 10
0.506645
 20
-0.198873
 30
0
  0
VERTEX
  8
72_ARTEK_AKFURNITURE_D2_CH_000
 10
0.508161
 20
-0.200117
 30
0
  0
VERTEX
  8
72_ARTEK_AKFURNITURE_D2_CH_000
 10
0.509404
 20
-0.201632
 30
0
  0
VERTEX
  8
72_ARTEK_AKFURNITURE_D2_CH_000
 10
0.510328
 20
-0.203361
 30
0
  0
VERTEX
  8
72_ARTEK_AKFURNITURE_D2_CH_000
 10
0.510898
 20
-0.205237
 30
0
  0
VERTEX
  8
72_ARTEK_AKFURNITURE_D2_CH_000
 10
0.51109
 20
-0.207188
 30
0
  0
SEQEND
  0
POLYLINE
  8
72_ARTEK_AKFURNITURE_D2SNAP
 66
     1
 70
     0
 10
0.0
 20
0.0
 30
0.0
  0
VERTEX
  8
72_ARTEK_AKFURNITURE_D2SNAP
 10
0.3016
 20
-0
 30
0
  0
VERTEX
  8
72_ARTEK_AKFURNITURE_D2SNAP
 10
0.30136
 20
0.00243863
 30
0
  0
VERTEX
  8
72_ARTEK_AKFURNITURE_D2SNAP
 10
0.300648
 20
0.00478354
 30
0
  0
VERTEX
  8
72_ARTEK_AKFURNITURE_D2SNAP
 10
0.299493
 20
0.00694463
 30
0
  0
VERTEX
  8
72_ARTEK_AKFURNITURE_D2SNAP
 10
0.297939
 20
0.00883883
 30
0
  0
VERTEX
  8
72_ARTEK_AKFURNITURE_D2SNAP
 10
0.296045
 20
0.0103934
 30
0
  0
VERTEX
  8
72_ARTEK_AKFURNITURE_D2SNAP
 10
0.293884
 20
0.0115485
 30
0
  0
VERTEX
  8
72_ARTEK_AKFURNITURE_D2SNAP
 10
0.291539
 20
0.0122598
 30
0
  0
VERTEX
  8
72_ARTEK_AKFURNITURE_D2SNAP
 10
0.2891
 20
0.0125
 30
0
  0
VERTEX
  8
72_ARTEK_AKFURNITURE_D2SNAP
 10
0.286661
 20
0.0122598
 30
0
  0
VERTEX
  8
72_ARTEK_AKFURNITURE_D2SNAP
 10
0.284316
 20
0.0115485
 30
0
  0
VERTEX
  8
72_ARTEK_AKFURNITURE_D2SNAP
 10
0.282155
 20
0.0103934
 30
0
  0
VERTEX
  8
72_ARTEK_AKFURNITURE_D2SNAP
 10
0.280261
 20
0.00883883
 30
0
  0
VERTEX
  8
72_ARTEK_AKFURNITURE_D2SNAP
 10
0.278707
 20
0.00694463
 30
0
  0
VERTEX
  8
72_ARTEK_AKFURNITURE_D2SNAP
 10
0.277552
 20
0.00478354
 30
0
  0
VERTEX
  8
72_ARTEK_AKFURNITURE_D2SNAP
 10
0.27684
 20
0.00243863
 30
0
  0
VERTEX
  8
72_ARTEK_AKFURNITURE_D2SNAP
 10
0.2766
 20
3.15316e-018
 30
0
  0
VERTEX
  8
72_ARTEK_AKFURNITURE_D2SNAP
 10
0.27684
 20
-0.00243863
 30
0
  0
VERTEX
  8
72_ARTEK_AKFURNITURE_D2SNAP
 10
0.277552
 20
-0.00478354
 30
0
  0
VERTEX
  8
72_ARTEK_AKFURNITURE_D2SNAP
 10
0.278707
 20
-0.00694463
 30
0
  0
VERTEX
  8
72_ARTEK_AKFURNITURE_D2SNAP
 10
0.280261
 20
-0.00883883
 30
0
  0
VERTEX
  8
72_ARTEK_AKFURNITURE_D2SNAP
 10
0.282155
 20
-0.0103934
 30
0
  0
VERTEX
  8
72_ARTEK_AKFURNITURE_D2SNAP
 10
0.284316
 20
-0.0115485
 30
0
  0
VERTEX
  8
72_ARTEK_AKFURNITURE_D2SNAP
 10
0.286661
 20
-0.0122598
 30
0
  0
VERTEX
  8
72_ARTEK_AKFURNITURE_D2SNAP
 10
0.2891
 20
-0.0125
 30
0
  0
VERTEX
  8
72_ARTEK_AKFURNITURE_D2SNAP
 10
0.291539
 20
-0.0122598
 30
0
  0
VERTEX
  8
72_ARTEK_AKFURNITURE_D2SNAP
 10
0.293884
 20
-0.0115485
 30
0
  0
VERTEX
  8
72_ARTEK_AKFURNITURE_D2SNAP
 10
0.296045
 20
-0.0103934
 30
0
  0
VERTEX
  8
72_ARTEK_AKFURNITURE_D2SNAP
 10
0.297939
 20
-0.00883883
 30
0
  0
VERTEX
  8
72_ARTEK_AKFURNITURE_D2SNAP
 10
0.299493
 20
-0.00694463
 30
0
  0
VERTEX
  8
72_ARTEK_AKFURNITURE_D2SNAP
 10
0.300648
 20
-0.00478354
 30
0
  0
VERTEX
  8
72_ARTEK_AKFURNITURE_D2SNAP
 10
0.30136
 20
-0.00243863
 30
0
  0
VERTEX
  8
72_ARTEK_AKFURNITURE_D2SNAP
 10
0.3016
 20
-0
 30
0
  0
SEQEND
  0
POLYLINE
  8
72_ARTEK_AKFURNITURE_D2SNAP
 66
     1
 70
     0
 10
0.0
 20
0.0
 30
0.0
  0
VERTEX
  8
72_ARTEK_AKFURNITURE_D2SNAP
 10
0.271422
 20
-0.0176777
 30
0
  0
VERTEX
  8
72_ARTEK_AKFURNITURE_D2SNAP
 10
0.306778
 20
0.0176777
 30
0
  0
SEQEND
  0
POLYLINE
  8
72_ARTEK_AKFURNITURE_D2SNAP
 66
     1
 70
     0
 10
0.0
 20
0.0
 30
0.0
  0
VERTEX
  8
72_ARTEK_AKFURNITURE_D2SNAP
 10
0.271422
 20
0.0176777
 30
0
  0
VERTEX
  8
72_ARTEK_AKFURNITURE_D2SNAP
 10
0.306778
 20
-0.0176777
 30
0
  0
SEQEND
  0
POLYLINE
  8
72_ARTEK_AKFURNITURE_D2_CH_FRA
 66
     1
 70
     0
 10
0.0
 20
0.0
 30
0.0
  0
VERTEX
  8
72_ARTEK_AKFURNITURE_D2_CH_FRA
 10
0.0861471
 20
0.0949168
 30
0
  0
VERTEX
  8
72_ARTEK_AKFURNITURE_D2_CH_FRA
 10
0.0840809
 20
0.0922416
 30
0
  0
VERTEX
  8
72_ARTEK_AKFURNITURE_D2_CH_FRA
 10
0.0835643
 20
0.0915728
 30
0
  0
VERTEX
  8
72_ARTEK_AKFURNITURE_D2_CH_FRA
 10
0.083436
 20
0.0914049
 30
0
  0
VERTEX
  8
72_ARTEK_AKFURNITURE_D2_CH_FRA
 10
0.0832409
 20
0.0913739
 30
0
  0
VERTEX
  8
72_ARTEK_AKFURNITURE_D2_CH_FRA
 10
0.0828184
 20
0.0913739
 30
0
  0
VERTEX
  8
72_ARTEK_AKFURNITURE_D2_CH_FRA
 10
0.0811282
 20
0.0913739
 30
0
  0
VERTEX
  8
72_ARTEK_AKFURNITURE_D2_CH_FRA
 10
0.0743677
 20
0.0913739
 30
0
  0
VERTEX
  8
72_ARTEK_AKFURNITURE_D2_CH_FRA
 10
0.0676072
 20
0.0913739
 30
0
  0
VERTEX
  8
72_ARTEK_AKFURNITURE_D2_CH_FRA
 10
0.065917
 20
0.0913739
 30
0
  0
VERTEX
  8
72_ARTEK_AKFURNITURE_D2_CH_FRA
 10
0.0657058
 20
0.0913739
 30
0
  0
VERTEX
  8
72_ARTEK_AKFURNITURE_D2_CH_FRA
 10
0.0656001
 20
0.0913739
 30
0
  0
VERTEX
  8
72_ARTEK_AKFURNITURE_D2_CH_FRA
 10
0.065584
 20
0.0914575
 30
0
  0
VERTEX
  8
72_ARTEK_AKFURNITURE_D2_CH_FRA
 10
0.0656125
 20
0.091881
 30
0
  0
VERTEX
  8
72_ARTEK_AKFURNITURE_D2_CH_FRA
 10
0.0656703
 20
0.0927451
 30
0
  0
VERTEX
  8
72_ARTEK_AKFURNITURE_D2_CH_FRA
 10
0.0657885
 20
0.0945434
 30
0
  0
VERTEX
  8
72_ARTEK_AKFURNITURE_D2_CH_FRA
 10
0.0659104
 20
0.096435
 30
0
  0
VERTEX
  8
72_ARTEK_AKFURNITURE_D2_CH_FRA
 10
0.066036
 20
0.0984198
 30
0
  0
VERTEX
  8
72_ARTEK_AKFURNITURE_D2_CH_FRA
 10
0.0661652
 20
0.100498
 30
0
  0
VERTEX
  8
72_ARTEK_AKFURNITURE_D2_CH_FRA
 10
0.066298
 20
0.102669
 30
0
  0
VERTEX
  8
72_ARTEK_AKFURNITURE_D2_CH_FRA
 10
0.0664345
 20
0.104934
 30
0
  0
VERTEX
  8
72_ARTEK_AKFURNITURE_D2_CH_FRA
 10
0.0666984
 20
0.109453
 30
0
  0
VERTEX
  8
72_ARTEK_AKFURNITURE_D2_CH_FRA
 10
0.0669285
 20
0.113644
 30
0
  0
VERTEX
  8
72_ARTEK_AKFURNITURE_D2_CH_FRA
 10
0.0670308
 20
0.115616
 30
0
  0
VERTEX
  8
72_ARTEK_AKFURNITURE_D2_CH_FRA
 10
0.0670703
 20
0.115828
 30
0
  0
VERTEX
  8
72_ARTEK_AKFURNITURE_D2_CH_FRA
 10
0.0673107
 20
0.115828
 30
0
  0
VERTEX
  8
72_ARTEK_AKFURNITURE_D2_CH_FRA
 10
0.0677916
 20
0.115828
 30
0
  0
VERTEX
  8
72_ARTEK_AKFURNITURE_D2_CH_FRA
 10
0.0687534
 20
0.115828
 30
0
  0
VERTEX
  8
72_ARTEK_AKFURNITURE_D2_CH_FRA
 10
0.0726005
 20
0.115828
 30
0
  0
VERTEX
  8
72_ARTEK_AKFURNITURE_D2_CH_FRA
 10
0.0802949
 20
0.115828
 30
0
  0
VERTEX
  8
72_ARTEK_AKFURNITURE_D2_CH_FRA
 10
0.0956835
 20
0.115828
 30
0
  0
VERTEX
  8
72_ARTEK_AKFURNITURE_D2_CH_FRA
 10
0.103378
 20
0.115828
 30
0
  0
VERTEX
  8
72_ARTEK_AKFURNITURE_D2_CH_FRA
 10
0.107225
 20
0.115828
 30
0
  0
VERTEX
  8
72_ARTEK_AKFURNITURE_D2_CH_FRA
 10
0.109149
 20
0.115828
 30
0
  0
VERTEX
  8
72_ARTEK_AKFURNITURE_D2_CH_FRA
 10
0.109629
 20
0.115828
 30
0
  0
VERTEX
  8
72_ARTEK_AKFURNITURE_D2_CH_FRA
 10
0.10987
 20
0.115828
 30
0
  0
VERTEX
  8
72_ARTEK_AKFURNITURE_D2_CH_FRA
 10
0.10999
 20
0.115828
 30
0
  0
VERTEX
  8
72_ARTEK_AKFURNITURE_D2_CH_FRA
 10
0.109897
 20
0.115765
 30
0
  0
VERTEX
  8
72_ARTEK_AKFURNITURE_D2_CH_FRA
 10
0.109089
 20
0.115243
 30
0
  0
VERTEX
  8
72_ARTEK_AKFURNITURE_D2_CH_FRA
 10
0.105908
 20
0.11308
 30
0
  0
VERTEX
  8
72_ARTEK_AKFURNITURE_D2_CH_FRA
 10
0.102792
 20
0.110823
 30
0
  0
VERTEX
  8
72_ARTEK_AKFURNITURE_D2_CH_FRA
 10
0.0997601
 20
0.108455
 30
0
  0
VERTEX
  8
72_ARTEK_AKFURNITURE_D2_CH_FRA
 10
0.0968143
 20
0.105981
 30
0
  0
VERTEX
  8
72_ARTEK_AKFURNITURE_D2_CH_FRA
 10
0.0939716
 20
0.10339
 30
0
  0
VERTEX
  8
72_ARTEK_AKFURNITURE_D2_CH_FRA
 10
0.0912404
 20
0.100681
 30
0
  0
VERTEX
  8
72_ARTEK_AKFURNITURE_D2_CH_FRA
 10
0.0886386
 20
0.0978482
 30
0
  0
VERTEX
  8
72_ARTEK_AKFURNITURE_D2_CH_FRA
 10
0.0861471
 20
0.0949168
 30
0
  0
SEQEND
  0
POLYLINE
  8
72_ARTEK_AKFURNITURE_D2_CH_FRA
 66
     1
 70
     0
 10
0.0
 20
0.0
 30
0.0
  0
VERTEX
  8
72_ARTEK_AKFURNITURE_D2_CH_FRA
 10
0.113311
 20
0.11791
 30
0
  0
VERTEX
  8
72_ARTEK_AKFURNITURE_D2_CH_FRA
 10
0.111519
 20
0.1168
 30
0
  0
VERTEX
  8
72_ARTEK_AKFURNITURE_D2_CH_FRA
 10
0.110628
 20
0.116237
 30
0
  0
VERTEX
  8
72_ARTEK_AKFURNITURE_D2_CH_FRA
 10
0.110186
 20
0.115951
 30
0
  0
VERTEX
  8
72_ARTEK_AKFURNITURE_D2_CH_FRA
 10
0.109695
 20
0.115828
 30
0
  0
VERTEX
  8
72_ARTEK_AKFURNITURE_D2_CH_FRA
 10
0.10548
 20
0.115828
 30
0
  0
VERTEX
  8
72_ARTEK_AKFURNITURE_D2_CH_FRA
 10
0.0970497
 20
0.115828
 30
0
  0
VERTEX
  8
72_ARTEK_AKFURNITURE_D2_CH_FRA
 10
0.080189
 20
0.115828
 30
0
  0
VERTEX
  8
72_ARTEK_AKFURNITURE_D2_CH_FRA
 10
0.0717587
 20
0.115828
 30
0
  0
VERTEX
  8
72_ARTEK_AKFURNITURE_D2_CH_FRA
 10
0.0675436
 20
0.115828
 30
0
  0
VERTEX
  8
72_ARTEK_AKFURNITURE_D2_CH_FRA
 10
0.0670428
 20
0.115852
 30
0
  0
VERTEX
  8
72_ARTEK_AKFURNITURE_D2_CH_FRA
 10
0.067069
 20
0.116375
 30
0
  0
VERTEX
  8
72_ARTEK_AKFURNITURE_D2_CH_FRA
 10
0.0671196
 20
0.117402
 30
0
  0
VERTEX
  8
72_ARTEK_AKFURNITURE_D2_CH_FRA
 10
0.0672131
 20
0.119382
 30
0
  0
VERTEX
  8
72_ARTEK_AKFURNITURE_D2_CH_FRA
 10
0.0672983
 20
0.121244
 30
0
  0
VERTEX
  8
72_ARTEK_AKFURNITURE_D2_CH_FRA
 10
0.0673774
 20
0.122966
 30
0
  0
VERTEX
  8
72_ARTEK_AKFURNITURE_D2_CH_FRA
 10
0.0674504
 20
0.12455
 30
0
  0
VERTEX
  8
72_ARTEK_AKFURNITURE_D2_CH_FRA
 10
0.0675173
 20
0.125995
 30
0
  0
VERTEX
  8
72_ARTEK_AKFURNITURE_D2_CH_FRA
 10
0.0675781
 20
0.127301
 30
0
  0
VERTEX
  8
72_ARTEK_AKFURNITURE_D2_CH_FRA
 10
0.0676328
 20
0.128468
 30
0
  0
VERTEX
  8
72_ARTEK_AKFURNITURE_D2_CH_FRA
 10
0.067682
 20
0.129506
 30
0
  0
VERTEX
  8
72_ARTEK_AKFURNITURE_D2_CH_FRA
 10
0.0677831
 20
0.129656
 30
0
  0
VERTEX
  8
72_ARTEK_AKFURNITURE_D2_CH_FRA
 10
0.0680264
 20
0.129656
 30
0
  0
VERTEX
  8
72_ARTEK_AKFURNITURE_D2_CH_FRA
 10
0.068513
 20
0.129656
 30
0
  0
VERTEX
  8
72_ARTEK_AKFURNITURE_D2_CH_FRA
 10
0.0996554
 20
0.129656
 30
0
  0
VERTEX
  8
72_ARTEK_AKFURNITURE_D2_CH_FRA
 10
0.130798
 20
0.129656
 30
0
  0
VERTEX
  8
72_ARTEK_AKFURNITURE_D2_CH_FRA
 10
0.134691
 20
0.129656
 30
0
  0
VERTEX
  8
72_ARTEK_AKFURNITURE_D2_CH_FRA
 10
0.135664
 20
0.129656
 30
0
  0
VERTEX
  8
72_ARTEK_AKFURNITURE_D2_CH_FRA
 10
0.13615
 20
0.129656
 30
0
  0
VERTEX
  8
72_ARTEK_AKFURNITURE_D2_CH_FRA
 10
0.135794
 20
0.129482
 30
0
  0
VERTEX
  8
72_ARTEK_AKFURNITURE_D2_CH_FRA
 10
0.134022
 20
0.128677
 30
0
  0
VERTEX
  8
72_ARTEK_AKFURNITURE_D2_CH_FRA
 10
0.12698
 20
0.125357
 30
0
  0
VERTEX
  8
72_ARTEK_AKFURNITURE_D2_CH_FRA
 10
0.120064
 20
0.121782
 30
0
  0
VERTEX
  8
72_ARTEK_AKFURNITURE_D2_CH_FRA
 10
0.113311
 20
0.11791
 30
0
  0
SEQEND
  0
POLYLINE
  8
72_ARTEK_AKFURNITURE_D2_CH_FRA
 66
     1
 70
     0
 10
0.0
 20
0.0
 30
0.0
  0
VERTEX
  8
72_ARTEK_AKFURNITURE_D2_CH_FRA
 10
0.492053
 20
0.0949168
 30
0
  0
VERTEX
  8
72_ARTEK_AKFURNITURE_D2_CH_FRA
 10
0.494119
 20
0.0922416
 30
0
  0
VERTEX
  8
72_ARTEK_AKFURNITURE_D2_CH_FRA
 10
0.494636
 20
0.0915728
 30
0
  0
VERTEX
  8
72_ARTEK_AKFURNITURE_D2_CH_FRA
 10
0.494764
 20
0.0914049
 30
0
  0
VERTEX
  8
72_ARTEK_AKFURNITURE_D2_CH_FRA
 10
0.494959
 20
0.0913739
 30
0
  0
VERTEX
  8
72_ARTEK_AKFURNITURE_D2_CH_FRA
 10
0.495382
 20
0.0913739
 30
0
  0
VERTEX
  8
72_ARTEK_AKFURNITURE_D2_CH_FRA
 10
0.497072
 20
0.0913739
 30
0
  0
VERTEX
  8
72_ARTEK_AKFURNITURE_D2_CH_FRA
 10
0.503832
 20
0.0913739
 30
0
  0
VERTEX
  8
72_ARTEK_AKFURNITURE_D2_CH_FRA
 10
0.510593
 20
0.0913739
 30
0
  0
VERTEX
  8
72_ARTEK_AKFURNITURE_D2_CH_FRA
 10
0.512283
 20
0.0913739
 30
0
  0
VERTEX
  8
72_ARTEK_AKFURNITURE_D2_CH_FRA
 10
0.512494
 20
0.0913739
 30
0
  0
VERTEX
  8
72_ARTEK_AKFURNITURE_D2_CH_FRA
 10
0.5126
 20
0.0913739
 30
0
  0
VERTEX
  8
72_ARTEK_AKFURNITURE_D2_CH_FRA
 10
0.512616
 20
0.0914575
 30
0
  0
VERTEX
  8
72_ARTEK_AKFURNITURE_D2_CH_FRA
 10
0.512587
 20
0.091881
 30
0
  0
VERTEX
  8
72_ARTEK_AKFURNITURE_D2_CH_FRA
 10
0.51253
 20
0.0927451
 30
0
  0
VERTEX
  8
72_ARTEK_AKFURNITURE_D2_CH_FRA
 10
0.512411
 20
0.0945434
 30
0
  0
VERTEX
  8
72_ARTEK_AKFURNITURE_D2_CH_FRA
 10
0.512289
 20
0.096435
 30
0
  0
VERTEX
  8
72_ARTEK_AKFURNITURE_D2_CH_FRA
 10
0.512164
 20
0.0984198
 30
0
  0
VERTEX
  8
72_ARTEK_AKFURNITURE_D2_CH_FRA
 10
0.512035
 20
0.100498
 30
0
  0
VERTEX
  8
72_ARTEK_AKFURNITURE_D2_CH_FRA
 10
0.511902
 20
0.102669
 30
0
  0
VERTEX
  8
72_ARTEK_AKFURNITURE_D2_CH_FRA
 10
0.511765
 20
0.104934
 30
0
  0
VERTEX
  8
72_ARTEK_AKFURNITURE_D2_CH_FRA
 10
0.511502
 20
0.109453
 30
0
  0
VERTEX
  8
72_ARTEK_AKFURNITURE_D2_CH_FRA
 10
0.511271
 20
0.113644
 30
0
  0
VERTEX
  8
72_ARTEK_AKFURNITURE_D2_CH_FRA
 10
0.511169
 20
0.115616
 30
0
  0
VERTEX
  8
72_ARTEK_AKFURNITURE_D2_CH_FRA
 10
0.51113
 20
0.115828
 30
0
  0
VERTEX
  8
72_ARTEK_AKFURNITURE_D2_CH_FRA
 10
0.510889
 20
0.115828
 30
0
  0
VERTEX
  8
72_ARTEK_AKFURNITURE_D2_CH_FRA
 10
0.510408
 20
0.115828
 30
0
  0
VERTEX
  8
72_ARTEK_AKFURNITURE_D2_CH_FRA
 10
0.509447
 20
0.115828
 30
0
  0
VERTEX
  8
72_ARTEK_AKFURNITURE_D2_CH_FRA
 10
0.505599
 20
0.115828
 30
0
  0
VERTEX
  8
72_ARTEK_AKFURNITURE_D2_CH_FRA
 10
0.497905
 20
0.115828
 30
0
  0
VERTEX
  8
72_ARTEK_AKFURNITURE_D2_CH_FRA
 10
0.482516
 20
0.115828
 30
0
  0
VERTEX
  8
72_ARTEK_AKFURNITURE_D2_CH_FRA
 10
0.474822
 20
0.115828
 30
0
  0
VERTEX
  8
72_ARTEK_AKFURNITURE_D2_CH_FRA
 10
0.470975
 20
0.115828
 30
0
  0
VERTEX
  8
72_ARTEK_AKFURNITURE_D2_CH_FRA
 10
0.469051
 20
0.115828
 30
0
  0
VERTEX
  8
72_ARTEK_AKFURNITURE_D2_CH_FRA
 10
0.46857
 20
0.115828
 30
0
  0
VERTEX
  8
72_ARTEK_AKFURNITURE_D2_CH_FRA
 10
0.46833
 20
0.115828
 30
0
  0
VERTEX
  8
72_ARTEK_AKFURNITURE_D2_CH_FRA
 10
0.46821
 20
0.115828
 30
0
  0
VERTEX
  8
72_ARTEK_AKFURNITURE_D2_CH_FRA
 10
0.468303
 20
0.115765
 30
0
  0
VERTEX
  8
72_ARTEK_AKFURNITURE_D2_CH_FRA
 10
0.469111
 20
0.115243
 30
0
  0
VERTEX
  8
72_ARTEK_AKFURNITURE_D2_CH_FRA
 10
0.472292
 20
0.11308
 30
0
  0
VERTEX
  8
72_ARTEK_AKFURNITURE_D2_CH_FRA
 10
0.475408
 20
0.110823
 30
0
  0
VERTEX
  8
72_ARTEK_AKFURNITURE_D2_CH_FRA
 10
0.47844
 20
0.108455
 30
0
  0
VERTEX
  8
72_ARTEK_AKFURNITURE_D2_CH_FRA
 10
0.481386
 20
0.105981
 30
0
  0
VERTEX
  8
72_ARTEK_AKFURNITURE_D2_CH_FRA
 10
0.484228
 20
0.10339
 30
0
  0
VERTEX
  8
72_ARTEK_AKFURNITURE_D2_CH_FRA
 10
0.486959
 20
0.100681
 30
0
  0
VERTEX
  8
72_ARTEK_AKFURNITURE_D2_CH_FRA
 10
0.489561
 20
0.0978482
 30
0
  0
VERTEX
  8
72_ARTEK_AKFURNITURE_D2_CH_FRA
 10
0.492053
 20
0.0949168
 30
0
  0
SEQEND
  0
POLYLINE
  8
72_ARTEK_AKFURNITURE_D2_CH_FRA
 66
     1
 70
     0
 10
0.0
 20
0.0
 30
0.0
  0
VERTEX
  8
72_ARTEK_AKFURNITURE_D2_CH_FRA
 10
0.464889
 20
0.11791
 30
0
  0
VERTEX
  8
72_ARTEK_AKFURNITURE_D2_CH_FRA
 10
0.466681
 20
0.1168
 30
0
  0
VERTEX
  8
72_ARTEK_AKFURNITURE_D2_CH_FRA
 10
0.467572
 20
0.116237
 30
0
  0
VERTEX
  8
72_ARTEK_AKFURNITURE_D2_CH_FRA
 10
0.468014
 20
0.115951
 30
0
  0
VERTEX
  8
72_ARTEK_AKFURNITURE_D2_CH_FRA
 10
0.468505
 20
0.115828
 30
0
  0
VERTEX
  8
72_ARTEK_AKFURNITURE_D2_CH_FRA
 10
0.47272
 20
0.115828
 30
0
  0
VERTEX
  8
72_ARTEK_AKFURNITURE_D2_CH_FRA
 10
0.48115
 20
0.115828
 30
0
  0
VERTEX
  8
72_ARTEK_AKFURNITURE_D2_CH_FRA
 10
0.498011
 20
0.115828
 30
0
  0
VERTEX
  8
72_ARTEK_AKFURNITURE_D2_CH_FRA
 10
0.506441
 20
0.115828
 30
0
  0
VERTEX
  8
72_ARTEK_AKFURNITURE_D2_CH_FRA
 10
0.510656
 20
0.115828
 30
0
  0
VERTEX
  8
72_ARTEK_AKFURNITURE_D2_CH_FRA
 10
0.511157
 20
0.115852
 30
0
  0
VERTEX
  8
72_ARTEK_AKFURNITURE_D2_CH_FRA
 10
0.511131
 20
0.116375
 30
0
  0
VERTEX
  8
72_ARTEK_AKFURNITURE_D2_CH_FRA
 10
0.51108
 20
0.117402
 30
0
  0
VERTEX
  8
72_ARTEK_AKFURNITURE_D2_CH_FRA
 10
0.510987
 20
0.119382
 30
0
  0
VERTEX
  8
72_ARTEK_AKFURNITURE_D2_CH_FRA
 10
0.510902
 20
0.121244
 30
0
  0
VERTEX
  8
72_ARTEK_AKFURNITURE_D2_CH_FRA
 10
0.510822
 20
0.122966
 30
0
  0
VERTEX
  8
72_ARTEK_AKFURNITURE_D2_CH_FRA
 10
0.510749
 20
0.12455
 30
0
  0
VERTEX
  8
72_ARTEK_AKFURNITURE_D2_CH_FRA
 10
0.510683
 20
0.125995
 30
0
  0
VERTEX
  8
72_ARTEK_AKFURNITURE_D2_CH_FRA
 10
0.510622
 20
0.127301
 30
0
  0
VERTEX
  8
72_ARTEK_AKFURNITURE_D2_CH_FRA
 10
0.510567
 20
0.128468
 30
0
  0
VERTEX
  8
72_ARTEK_AKFURNITURE_D2_CH_FRA
 10
0.510518
 20
0.129506
 30
0
  0
VERTEX
  8
72_ARTEK_AKFURNITURE_D2_CH_FRA
 10
0.510417
 20
0.129656
 30
0
  0
VERTEX
  8
72_ARTEK_AKFURNITURE_D2_CH_FRA
 10
0.510173
 20
0.129656
 30
0
  0
VERTEX
  8
72_ARTEK_AKFURNITURE_D2_CH_FRA
 10
0.509687
 20
0.129656
 30
0
  0
VERTEX
  8
72_ARTEK_AKFURNITURE_D2_CH_FRA
 10
0.478545
 20
0.129656
 30
0
  0
VERTEX
  8
72_ARTEK_AKFURNITURE_D2_CH_FRA
 10
0.447402
 20
0.129656
 30
0
  0
VERTEX
  8
72_ARTEK_AKFURNITURE_D2_CH_FRA
 10
0.443509
 20
0.129656
 30
0
  0
VERTEX
  8
72_ARTEK_AKFURNITURE_D2_CH_FRA
 10
0.442536
 20
0.129656
 30
0
  0
VERTEX
  8
72_ARTEK_AKFURNITURE_D2_CH_FRA
 10
0.44205
 20
0.129656
 30
0
  0
VERTEX
  8
72_ARTEK_AKFURNITURE_D2_CH_FRA
 10
0.442406
 20
0.129482
 30
0
  0
VERTEX
  8
72_ARTEK_AKFURNITURE_D2_CH_FRA
 10
0.444178
 20
0.128677
 30
0
  0
VERTEX
  8
72_ARTEK_AKFURNITURE_D2_CH_FRA
 10
0.45122
 20
0.125357
 30
0
  0
VERTEX
  8
72_ARTEK_AKFURNITURE_D2_CH_FRA
 10
0.458135
 20
0.121782
 30
0
  0
VERTEX
  8
72_ARTEK_AKFURNITURE_D2_CH_FRA
 10
0.464889
 20
0.11791
 30
0
  0
SEQEND
  0
POLYLINE
  8
72_ARTEK_AKFURNITURE_D2_CH_FRA
 66
     1
 70
     0
 10
0.0
 20
0.0
 30
0.0
  0
VERTEX
  8
72_ARTEK_AKFURNITURE_D2_CH_FRA
 10
0.3016
 20
-0
 30
0
  0
VERTEX
  8
72_ARTEK_AKFURNITURE_D2_CH_FRA
 10
0.30136
 20
0.00243863
 30
0
  0
VERTEX
  8
72_ARTEK_AKFURNITURE_D2_CH_FRA
 10
0.300648
 20
0.00478354
 30
0
  0
VERTEX
  8
72_ARTEK_AKFURNITURE_D2_CH_FRA
 10
0.299493
 20
0.00694463
 30
0
  0
VERTEX
  8
72_ARTEK_AKFURNITURE_D2_CH_FRA
 10
0.297939
 20
0.00883883
 30
0
  0
VERTEX
  8
72_ARTEK_AKFURNITURE_D2_CH_FRA
 10
0.296045
 20
0.0103934
 30
0
  0
VERTEX
  8
72_ARTEK_AKFURNITURE_D2_CH_FRA
 10
0.293884
 20
0.0115485
 30
0
  0
VERTEX
  8
72_ARTEK_AKFURNITURE_D2_CH_FRA
 10
0.291539
 20
0.0122598
 30
0
  0
VERTEX
  8
72_ARTEK_AKFURNITURE_D2_CH_FRA
 10
0.2891
 20
0.0125
 30
0
  0
VERTEX
  8
72_ARTEK_AKFURNITURE_D2_CH_FRA
 10
0.286661
 20
0.0122598
 30
0
  0
VERTEX
  8
72_ARTEK_AKFURNITURE_D2_CH_FRA
 10
0.284316
 20
0.0115485
 30
0
  0
VERTEX
  8
72_ARTEK_AKFURNITURE_D2_CH_FRA
 10
0.282155
 20
0.0103934
 30
0
  0
VERTEX
  8
72_ARTEK_AKFURNITURE_D2_CH_FRA
 10
0.280261
 20
0.00883883
 30
0
  0
VERTEX
  8
72_ARTEK_AKFURNITURE_D2_CH_FRA
 10
0.278707
 20
0.00694463
 30
0
  0
VERTEX
  8
72_ARTEK_AKFURNITURE_D2_CH_FRA
 10
0.277552
 20
0.00478354
 30
0
  0
VERTEX
  8
72_ARTEK_AKFURNITURE_D2_CH_FRA
 10
0.27684
 20
0.00243863
 30
0
  0
VERTEX
  8
72_ARTEK_AKFURNITURE_D2_CH_FRA
 10
0.2766
 20
3.15316e-018
 30
0
  0
VERTEX
  8
72_ARTEK_AKFURNITURE_D2_CH_FRA
 10
0.27684
 20
-0.00243863
 30
0
  0
VERTEX
  8
72_ARTEK_AKFURNITURE_D2_CH_FRA
 10
0.277552
 20
-0.00478354
 30
0
  0
VERTEX
  8
72_ARTEK_AKFURNITURE_D2_CH_FRA
 10
0.278707
 20
-0.00694463
 30
0
  0
VERTEX
  8
72_ARTEK_AKFURNITURE_D2_CH_FRA
 10
0.280261
 20
-0.00883883
 30
0
  0
VERTEX
  8
72_ARTEK_AKFURNITURE_D2_CH_FRA
 10
0.282155
 20
-0.0103934
 30
0
  0
VERTEX
  8
72_ARTEK_AKFURNITURE_D2_CH_FRA
 10
0.284316
 20
-0.0115485
 30
0
  0
VERTEX
  8
72_ARTEK_AKFURNITURE_D2_CH_FRA
 10
0.286661
 20
-0.0122598
 30
0
  0
VERTEX
  8
72_ARTEK_AKFURNITURE_D2_CH_FRA
 10
0.2891
 20
-0.0125
 30
0
  0
VERTEX
  8
72_ARTEK_AKFURNITURE_D2_CH_FRA
 10
0.291539
 20
-0.0122598
 30
0
  0
VERTEX
  8
72_ARTEK_AKFURNITURE_D2_CH_FRA
 10
0.293884
 20
-0.0115485
 30
0
  0
VERTEX
  8
72_ARTEK_AKFURNITURE_D2_CH_FRA
 10
0.296045
 20
-0.0103934
 30
0
  0
VERTEX
  8
72_ARTEK_AKFURNITURE_D2_CH_FRA
 10
0.297939
 20
-0.00883883
 30
0
  0
VERTEX
  8
72_ARTEK_AKFURNITURE_D2_CH_FRA
 10
0.299493
 20
-0.00694463
 30
0
  0
VERTEX
  8
72_ARTEK_AKFURNITURE_D2_CH_FRA
 10
0.300648
 20
-0.00478354
 30
0
  0
VERTEX
  8
72_ARTEK_AKFURNITURE_D2_CH_FRA
 10
0.30136
 20
-0.00243863
 30
0
  0
VERTEX
  8
72_ARTEK_AKFURNITURE_D2_CH_FRA
 10
0.3016
 20
-0
 30
0
  0
SEQEND
  0
POLYLINE
  8
72_ARTEK_AKFURNITURE_D2_CH_FRA
 66
     1
 70
     0
 10
0.0
 20
0.0
 30
0.0
  0
VERTEX
  8
72_ARTEK_AKFURNITURE_D2_CH_FRA
 10
0.271422
 20
-0.0176777
 30
0
  0
VERTEX
  8
72_ARTEK_AKFURNITURE_D2_CH_FRA
 10
0.306778
 20
0.0176777
 30
0
  0
SEQEND
  0
POLYLINE
  8
72_ARTEK_AKFURNITURE_D2_CH_FRA
 66
     1
 70
     0
 10
0.0
 20
0.0
 30
0.0
  0
VERTEX
  8
72_ARTEK_AKFURNITURE_D2_CH_FRA
 10
0.271422
 20
0.0176777
 30
0
  0
VERTEX
  8
72_ARTEK_AKFURNITURE_D2_CH_FRA
 10
0.306778
 20
-0.0176777
 30
0
  0
SEQEND
  0
POLYLINE
  8
72_ARTEK_AKFURNITURE_D2_CH_FRA
 66
     1
 70
     0
 10
0.0
 20
0.0
 30
0.0
  0
VERTEX
  8
72_ARTEK_AKFURNITURE_D2_CH_FRA
 10
0.2891
 20
0.192594
 30
0
  0
VERTEX
  8
72_ARTEK_AKFURNITURE_D2_CH_FRA
 10
0.281717
 20
0.19232
 30
0
  0
VERTEX
  8
72_ARTEK_AKFURNITURE_D2_CH_FRA
 10
0.27436
 20
0.191914
 30
0
  0
VERTEX
  8
72_ARTEK_AKFURNITURE_D2_CH_FRA
 10
0.26703
 20
0.191377
 30
0
  0
VERTEX
  8
72_ARTEK_AKFURNITURE_D2_CH_FRA
 10
0.2641
 20
0.191109
 30
0
  0
VERTEX
  8
72_ARTEK_AKFURNITURE_D2_CH_FRA
 10
0.2641
 20
0.157189
 30
0
  0
VERTEX
  8
72_ARTEK_AKFURNITURE_D2_CH_FRA
 10
0.266157
 20
0.157301
 30
0
  0
VERTEX
  8
72_ARTEK_AKFURNITURE_D2_CH_FRA
 10
0.270731
 20
0.157505
 30
0
  0
VERTEX
  8
72_ARTEK_AKFURNITURE_D2_CH_FRA
 10
0.275309
 20
0.157666
 30
0
  0
VERTEX
  8
72_ARTEK_AKFURNITURE_D2_CH_FRA
 10
0.279891
 20
0.157784
 30
0
  0
VERTEX
  8
72_ARTEK_AKFURNITURE_D2_CH_FRA
 10
0.284477
 20
0.15786
 30
0
  0
VERTEX
  8
72_ARTEK_AKFURNITURE_D2_CH_FRA
 10
0.289067
 20
0.157895
 30
0
  0
VERTEX
  8
72_ARTEK_AKFURNITURE_D2_CH_FRA
 10
0.2891
 20
0.157895
 30
0
  0
VERTEX
  8
72_ARTEK_AKFURNITURE_D2_CH_FRA
 10
0.289133
 20
0.157895
 30
0
  0
VERTEX
  8
72_ARTEK_AKFURNITURE_D2_CH_FRA
 10
0.293723
 20
0.15786
 30
0
  0
VERTEX
  8
72_ARTEK_AKFURNITURE_D2_CH_FRA
 10
0.298309
 20
0.157784
 30
0
  0
VERTEX
  8
72_ARTEK_AKFURNITURE_D2_CH_FRA
 10
0.302891
 20
0.157666
 30
0
  0
VERTEX
  8
72_ARTEK_AKFURNITURE_D2_CH_FRA
 10
0.307468
 20
0.157505
 30
0
  0
VERTEX
  8
72_ARTEK_AKFURNITURE_D2_CH_FRA
 10
0.312043
 20
0.157301
 30
0
  0
VERTEX
  8
72_ARTEK_AKFURNITURE_D2_CH_FRA
 10
0.3141
 20
0.157189
 30
0
  0
VERTEX
  8
72_ARTEK_AKFURNITURE_D2_CH_FRA
 10
0.3141
 20
0.191109
 30
0
  0
VERTEX
  8
72_ARTEK_AKFURNITURE_D2_CH_FRA
 10
0.31117
 20
0.191377
 30
0
  0
VERTEX
  8
72_ARTEK_AKFURNITURE_D2_CH_FRA
 10
0.30384
 20
0.191914
 30
0
  0
VERTEX
  8
72_ARTEK_AKFURNITURE_D2_CH_FRA
 10
0.296483
 20
0.19232
 30
0
  0
VERTEX
  8
72_ARTEK_AKFURNITURE_D2_CH_FRA
 10
0.2891
 20
0.192594
 30
0
  0
SEQEND
  0
POLYLINE
  8
72_ARTEK_AKFURNITURE_D2SNAP
 66
     1
 70
     0
 10
0.0
 20
0.0
 30
0.0
  0
VERTEX
  8
72_ARTEK_AKFURNITURE_D2SNAP
 10
0.3016
 20
-0
 30
0
  0
VERTEX
  8
72_ARTEK_AKFURNITURE_D2SNAP
 10
0.30136
 20
0.00243863
 30
0
  0
VERTEX
  8
72_ARTEK_AKFURNITURE_D2SNAP
 10
0.300648
 20
0.00478354
 30
0
  0
VERTEX
  8
72_ARTEK_AKFURNITURE_D2SNAP
 10
0.299493
 20
0.00694463
 30
0
  0
VERTEX
  8
72_ARTEK_AKFURNITURE_D2SNAP
 10
0.297939
 20
0.00883883
 30
0
  0
VERTEX
  8
72_ARTEK_AKFURNITURE_D2SNAP
 10
0.296045
 20
0.0103934
 30
0
  0
VERTEX
  8
72_ARTEK_AKFURNITURE_D2SNAP
 10
0.293884
 20
0.0115485
 30
0
  0
VERTEX
  8
72_ARTEK_AKFURNITURE_D2SNAP
 10
0.291539
 20
0.0122598
 30
0
  0
VERTEX
  8
72_ARTEK_AKFURNITURE_D2SNAP
 10
0.2891
 20
0.0125
 30
0
  0
VERTEX
  8
72_ARTEK_AKFURNITURE_D2SNAP
 10
0.286661
 20
0.0122598
 30
0
  0
VERTEX
  8
72_ARTEK_AKFURNITURE_D2SNAP
 10
0.284316
 20
0.0115485
 30
0
  0
VERTEX
  8
72_ARTEK_AKFURNITURE_D2SNAP
 10
0.282155
 20
0.0103934
 30
0
  0
VERTEX
  8
72_ARTEK_AKFURNITURE_D2SNAP
 10
0.280261
 20
0.00883883
 30
0
  0
VERTEX
  8
72_ARTEK_AKFURNITURE_D2SNAP
 10
0.278707
 20
0.00694463
 30
0
  0
VERTEX
  8
72_ARTEK_AKFURNITURE_D2SNAP
 10
0.277552
 20
0.00478354
 30
0
  0
VERTEX
  8
72_ARTEK_AKFURNITURE_D2SNAP
 10
0.27684
 20
0.00243863
 30
0
  0
VERTEX
  8
72_ARTEK_AKFURNITURE_D2SNAP
 10
0.2766
 20
3.15316e-018
 30
0
  0
VERTEX
  8
72_ARTEK_AKFURNITURE_D2SNAP
 10
0.27684
 20
-0.00243863
 30
0
  0
VERTEX
  8
72_ARTEK_AKFURNITURE_D2SNAP
 10
0.277552
 20
-0.00478354
 30
0
  0
VERTEX
  8
72_ARTEK_AKFURNITURE_D2SNAP
 10
0.278707
 20
-0.00694463
 30
0
  0
VERTEX
  8
72_ARTEK_AKFURNITURE_D2SNAP
 10
0.280261
 20
-0.00883883
 30
0
  0
VERTEX
  8
72_ARTEK_AKFURNITURE_D2SNAP
 10
0.282155
 20
-0.0103934
 30
0
  0
VERTEX
  8
72_ARTEK_AKFURNITURE_D2SNAP
 10
0.284316
 20
-0.0115485
 30
0
  0
VERTEX
  8
72_ARTEK_AKFURNITURE_D2SNAP
 10
0.286661
 20
-0.0122598
 30
0
  0
VERTEX
  8
72_ARTEK_AKFURNITURE_D2SNAP
 10
0.2891
 20
-0.0125
 30
0
  0
VERTEX
  8
72_ARTEK_AKFURNITURE_D2SNAP
 10
0.291539
 20
-0.0122598
 30
0
  0
VERTEX
  8
72_ARTEK_AKFURNITURE_D2SNAP
 10
0.293884
 20
-0.0115485
 30
0
  0
VERTEX
  8
72_ARTEK_AKFURNITURE_D2SNAP
 10
0.296045
 20
-0.0103934
 30
0
  0
VERTEX
  8
72_ARTEK_AKFURNITURE_D2SNAP
 10
0.297939
 20
-0.00883883
 30
0
  0
VERTEX
  8
72_ARTEK_AKFURNITURE_D2SNAP
 10
0.299493
 20
-0.00694463
 30
0
  0
VERTEX
  8
72_ARTEK_AKFURNITURE_D2SNAP
 10
0.300648
 20
-0.00478354
 30
0
  0
VERTEX
  8
72_ARTEK_AKFURNITURE_D2SNAP
 10
0.30136
 20
-0.00243863
 30
0
  0
VERTEX
  8
72_ARTEK_AKFURNITURE_D2SNAP
 10
0.3016
 20
-0
 30
0
  0
SEQEND
  0
POLYLINE
  8
72_ARTEK_AKFURNITURE_D2SNAP
 66
     1
 70
     0
 10
0.0
 20
0.0
 30
0.0
  0
VERTEX
  8
72_ARTEK_AKFURNITURE_D2SNAP
 10
0.271422
 20
-0.0176777
 30
0
  0
VERTEX
  8
72_ARTEK_AKFURNITURE_D2SNAP
 10
0.306778
 20
0.0176777
 30
0
  0
SEQEND
  0
POLYLINE
  8
72_ARTEK_AKFURNITURE_D2SNAP
 66
     1
 70
     0
 10
0.0
 20
0.0
 30
0.0
  0
VERTEX
  8
72_ARTEK_AKFURNITURE_D2SNAP
 10
0.271422
 20
0.0176777
 30
0
  0
VERTEX
  8
72_ARTEK_AKFURNITURE_D2SNAP
 10
0.306778
 20
-0.0176777
 30
0
  0
SEQEND
  0
POLYLINE
  8
72_ARTEK_AKFURNITURE_D2_CH_SEA
 66
     1
 70
     0
 10
0.0
 20
0.0
 30
0.0
  0
VERTEX
  8
72_ARTEK_AKFURNITURE_D2_CH_SEA
 10
0.2891
 20
0.157895
 30
0
  0
VERTEX
  8
72_ARTEK_AKFURNITURE_D2_CH_SEA
 10
0.289067
 20
0.157895
 30
0
  0
VERTEX
  8
72_ARTEK_AKFURNITURE_D2_CH_SEA
 10
0.284477
 20
0.15786
 30
0
  0
VERTEX
  8
72_ARTEK_AKFURNITURE_D2_CH_SEA
 10
0.279891
 20
0.157784
 30
0
  0
VERTEX
  8
72_ARTEK_AKFURNITURE_D2_CH_SEA
 10
0.275309
 20
0.157666
 30
0
  0
VERTEX
  8
72_ARTEK_AKFURNITURE_D2_CH_SEA
 10
0.270731
 20
0.157505
 30
0
  0
VERTEX
  8
72_ARTEK_AKFURNITURE_D2_CH_SEA
 10
0.266157
 20
0.157301
 30
0
  0
VERTEX
  8
72_ARTEK_AKFURNITURE_D2_CH_SEA
 10
0.261586
 20
0.157053
 30
0
  0
VERTEX
  8
72_ARTEK_AKFURNITURE_D2_CH_SEA
 10
0.257018
 20
0.156759
 30
0
  0
VERTEX
  8
72_ARTEK_AKFURNITURE_D2_CH_SEA
 10
0.252452
 20
0.156419
 30
0
  0
VERTEX
  8
72_ARTEK_AKFURNITURE_D2_CH_SEA
 10
0.247889
 20
0.156032
 30
0
  0
VERTEX
  8
72_ARTEK_AKFURNITURE_D2_CH_SEA
 10
0.243327
 20
0.155597
 30
0
  0
VERTEX
  8
72_ARTEK_AKFURNITURE_D2_CH_SEA
 10
0.238767
 20
0.155113
 30
0
  0
VERTEX
  8
72_ARTEK_AKFURNITURE_D2_CH_SEA
 10
0.234209
 20
0.154579
 30
0
  0
VERTEX
  8
72_ARTEK_AKFURNITURE_D2_CH_SEA
 10
0.229651
 20
0.153994
 30
0
  0
VERTEX
  8
72_ARTEK_AKFURNITURE_D2_CH_SEA
 10
0.225094
 20
0.153358
 30
0
  0
VERTEX
  8
72_ARTEK_AKFURNITURE_D2_CH_SEA
 10
0.220536
 20
0.152669
 30
0
  0
VERTEX
  8
72_ARTEK_AKFURNITURE_D2_CH_SEA
 10
0.215979
 20
0.151926
 30
0
  0
VERTEX
  8
72_ARTEK_AKFURNITURE_D2_CH_SEA
 10
0.211637
 20
0.151176
 30
0
  0
VERTEX
  8
72_ARTEK_AKFURNITURE_D2_CH_SEA
 10
0.207303
 20
0.150394
 30
0
  0
VERTEX
  8
72_ARTEK_AKFURNITURE_D2_CH_SEA
 10
0.202976
 20
0.149575
 30
0
  0
VERTEX
  8
72_ARTEK_AKFURNITURE_D2_CH_SEA
 10
0.198659
 20
0.148717
 30
0
  0
VERTEX
  8
72_ARTEK_AKFURNITURE_D2_CH_SEA
 10
0.194352
 20
0.147819
 30
0
  0
VERTEX
  8
72_ARTEK_AKFURNITURE_D2_CH_SEA
 10
0.190056
 20
0.146877
 30
0
  0
VERTEX
  8
72_ARTEK_AKFURNITURE_D2_CH_SEA
 10
0.185773
 20
0.145889
 30
0
  0
VERTEX
  8
72_ARTEK_AKFURNITURE_D2_CH_SEA
 10
0.181503
 20
0.144851
 30
0
  0
VERTEX
  8
72_ARTEK_AKFURNITURE_D2_CH_SEA
 10
0.177248
 20
0.143762
 30
0
  0
VERTEX
  8
72_ARTEK_AKFURNITURE_D2_CH_SEA
 10
0.173008
 20
0.142619
 30
0
  0
VERTEX
  8
72_ARTEK_AKFURNITURE_D2_CH_SEA
 10
0.168786
 20
0.141419
 30
0
  0
VERTEX
  8
72_ARTEK_AKFURNITURE_D2_CH_SEA
 10
0.164581
 20
0.14016
 30
0
  0
VERTEX
  8
72_ARTEK_AKFURNITURE_D2_CH_SEA
 10
0.160396
 20
0.138838
 30
0
  0
VERTEX
  8
72_ARTEK_AKFURNITURE_D2_CH_SEA
 10
0.15623
 20
0.137452
 30
0
  0
VERTEX
  8
72_ARTEK_AKFURNITURE_D2_CH_SEA
 10
0.152086
 20
0.135999
 30
0
  0
VERTEX
  8
72_ARTEK_AKFURNITURE_D2_CH_SEA
 10
0.147964
 20
0.134475
 30
0
  0
VERTEX
  8
72_ARTEK_AKFURNITURE_D2_CH_SEA
 10
0.143865
 20
0.13288
 30
0
  0
VERTEX
  8
72_ARTEK_AKFURNITURE_D2_CH_SEA
 10
0.139791
 20
0.131209
 30
0
  0
VERTEX
  8
72_ARTEK_AKFURNITURE_D2_CH_SEA
 10
0.135743
 20
0.12946
 30
0
  0
VERTEX
  8
72_ARTEK_AKFURNITURE_D2_CH_SEA
 10
0.131721
 20
0.127631
 30
0
  0
VERTEX
  8
72_ARTEK_AKFURNITURE_D2_CH_SEA
 10
0.129391
 20
0.12653
 30
0
  0
VERTEX
  8
72_ARTEK_AKFURNITURE_D2_CH_SEA
 10
0.127064
 20
0.125399
 30
0
  0
VERTEX
  8
72_ARTEK_AKFURNITURE_D2_CH_SEA
 10
0.124741
 20
0.124237
 30
0
  0
VERTEX
  8
72_ARTEK_AKFURNITURE_D2_CH_SEA
 10
0.122426
 20
0.123043
 30
0
  0
VERTEX
  8
72_ARTEK_AKFURNITURE_D2_CH_SEA
 10
0.120123
 20
0.121814
 30
0
  0
VERTEX
  8
72_ARTEK_AKFURNITURE_D2_CH_SEA
 10
0.117834
 20
0.12055
 30
0
  0
VERTEX
  8
72_ARTEK_AKFURNITURE_D2_CH_SEA
 10
0.115562
 20
0.119249
 30
0
  0
VERTEX
  8
72_ARTEK_AKFURNITURE_D2_CH_SEA
 10
0.113311
 20
0.11791
 30
0
  0
VERTEX
  8
72_ARTEK_AKFURNITURE_D2_CH_SEA
 10
0.111083
 20
0.116531
 30
0
  0
VERTEX
  8
72_ARTEK_AKFURNITURE_D2_CH_SEA
 10
0.108883
 20
0.11511
 30
0
  0
VERTEX
  8
72_ARTEK_AKFURNITURE_D2_CH_SEA
 10
0.106712
 20
0.113647
 30
0
  0
VERTEX
  8
72_ARTEK_AKFURNITURE_D2_CH_SEA
 10
0.104574
 20
0.112139
 30
0
  0
VERTEX
  8
72_ARTEK_AKFURNITURE_D2_CH_SEA
 10
0.102472
 20
0.110586
 30
0
  0
VERTEX
  8
72_ARTEK_AKFURNITURE_D2_CH_SEA
 10
0.10041
 20
0.108986
 30
0
  0
VERTEX
  8
72_ARTEK_AKFURNITURE_D2_CH_SEA
 10
0.0983898
 20
0.107337
 30
0
  0
VERTEX
  8
72_ARTEK_AKFURNITURE_D2_CH_SEA
 10
0.096415
 20
0.105638
 30
0
  0
VERTEX
  8
72_ARTEK_AKFURNITURE_D2_CH_SEA
 10
0.0944888
 20
0.103887
 30
0
  0
VERTEX
  8
72_ARTEK_AKFURNITURE_D2_CH_SEA
 10
0.0926144
 20
0.102084
 30
0
  0
VERTEX
  8
72_ARTEK_AKFURNITURE_D2_CH_SEA
 10
0.0907949
 20
0.100226
 30
0
  0
VERTEX
  8
72_ARTEK_AKFURNITURE_D2_CH_SEA
 10
0.0890331
 20
0.0983124
 30
0
  0
VERTEX
  8
72_ARTEK_AKFURNITURE_D2_CH_SEA
 10
0.0861471
 20
0.0949168
 30
0
  0
VERTEX
  8
72_ARTEK_AKFURNITURE_D2_CH_SEA
 10
0.0834499
 20
0.0914247
 30
0
  0
VERTEX
  8
72_ARTEK_AKFURNITURE_D2_CH_SEA
 10
0.0809344
 20
0.0878413
 30
0
  0
VERTEX
  8
72_ARTEK_AKFURNITURE_D2_CH_SEA
 10
0.0785937
 20
0.0841721
 30
0
  0
VERTEX
  8
72_ARTEK_AKFURNITURE_D2_CH_SEA
 10
0.0764205
 20
0.0804222
 30
0
  0
VERTEX
  8
72_ARTEK_AKFURNITURE_D2_CH_SEA
 10
0.0744076
 20
0.0765968
 30
0
  0
VERTEX
  8
72_ARTEK_AKFURNITURE_D2_CH_SEA
 10
0.0725478
 20
0.0727014
 30
0
  0
VERTEX
  8
72_ARTEK_AKFURNITURE_D2_CH_SEA
 10
0.0708343
 20
0.0687411
 30
0
  0
VERTEX
  8
72_ARTEK_AKFURNITURE_D2_CH_SEA
 10
0.0692596
 20
0.0647212
 30
0
  0
VERTEX
  8
72_ARTEK_AKFURNITURE_D2_CH_SEA
 10
0.0678164
 20
0.0606471
 30
0
  0
VERTEX
  8
72_ARTEK_AKFURNITURE_D2_CH_SEA
 10
0.066498
 20
0.056524
 30
0
  0
VERTEX
  8
72_ARTEK_AKFURNITURE_D2_CH_SEA
 10
0.0652969
 20
0.0523572
 30
0
  0
VERTEX
  8
72_ARTEK_AKFURNITURE_D2_CH_SEA
 10
0.0642062
 20
0.0481519
 30
0
  0
VERTEX
  8
72_ARTEK_AKFURNITURE_D2_CH_SEA
 10
0.0632186
 20
0.0439134
 30
0
  0
VERTEX
  8
72_ARTEK_AKFURNITURE_D2_CH_SEA
 10
0.0623269
 20
0.0396471
 30
0
  0
VERTEX
  8
72_ARTEK_AKFURNITURE_D2_CH_SEA
 10
0.061524
 20
0.0353581
 30
0
  0
VERTEX
  8
72_ARTEK_AKFURNITURE_D2_CH_SEA
 10
0.0608028
 20
0.0310519
 30
0
  0
VERTEX
  8
72_ARTEK_AKFURNITURE_D2_CH_SEA
 10
0.0601559
 20
0.0267335
 30
0
  0
VERTEX
  8
72_ARTEK_AKFURNITURE_D2_CH_SEA
 10
0.0595766
 20
0.0224086
 30
0
  0
VERTEX
  8
72_ARTEK_AKFURNITURE_D2_CH_SEA
 10
0.0590575
 20
0.018082
 30
0
  0
VERTEX
  8
72_ARTEK_AKFURNITURE_D2_CH_SEA
 10
0.0585851
 20
0.0137643
 30
0
  0
VERTEX
  8
72_ARTEK_AKFURNITURE_D2_CH_SEA
 10
0.0581481
 20
0.00944549
 30
0
  0
VERTEX
  8
72_ARTEK_AKFURNITURE_D2_CH_SEA
 10
0.0577444
 20
0.00512527
 30
0
  0
VERTEX
  8
72_ARTEK_AKFURNITURE_D2_CH_SEA
 10
0.0573727
 20
0.000803672
 30
0
  0
VERTEX
  8
72_ARTEK_AKFURNITURE_D2_CH_SEA
 10
0.0570315
 20
-0.00351929
 30
0
  0
VERTEX
  8
72_ARTEK_AKFURNITURE_D2_CH_SEA
 10
0.0567193
 20
-0.00784348
 30
0
  0
VERTEX
  8
72_ARTEK_AKFURNITURE_D2_CH_SEA
 10
0.0564339
 20
-0.0121689
 30
0
  0
VERTEX
  8
72_ARTEK_AKFURNITURE_D2_CH_SEA
 10
0.0561745
 20
-0.0164955
 30
0
  0
VERTEX
  8
72_ARTEK_AKFURNITURE_D2_CH_SEA
 10
0.0559393
 20
-0.0208235
 30
0
  0
VERTEX
  8
72_ARTEK_AKFURNITURE_D2_CH_SEA
 10
0.0557262
 20
-0.0251527
 30
0
  0
VERTEX
  8
72_ARTEK_AKFURNITURE_D2_CH_SEA
 10
0.0555343
 20
-0.029483
 30
0
  0
VERTEX
  8
72_ARTEK_AKFURNITURE_D2_CH_SEA
 10
0.0553616
 20
-0.0338147
 30
0
  0
VERTEX
  8
72_ARTEK_AKFURNITURE_D2_CH_SEA
 10
0.0552065
 20
-0.0381474
 30
0
  0
VERTEX
  8
72_ARTEK_AKFURNITURE_D2_CH_SEA
 10
0.0550677
 20
-0.0424814
 30
0
  0
VERTEX
  8
72_ARTEK_AKFURNITURE_D2_CH_SEA
 10
0.0549435
 20
-0.0468166
 30
0
  0
VERTEX
  8
72_ARTEK_AKFURNITURE_D2_CH_SEA
 10
0.0548324
 20
-0.0511528
 30
0
  0
VERTEX
  8
72_ARTEK_AKFURNITURE_D2_CH_SEA
 10
0.0547323
 20
-0.0554901
 30
0
  0
VERTEX
  8
72_ARTEK_AKFURNITURE_D2_CH_SEA
 10
0.0546423
 20
-0.0598286
 30
0
  0
VERTEX
  8
72_ARTEK_AKFURNITURE_D2_CH_SEA
 10
0.0545605
 20
-0.0641682
 30
0
  0
VERTEX
  8
72_ARTEK_AKFURNITURE_D2_CH_SEA
 10
0.0544854
 20
-0.0685089
 30
0
  0
VERTEX
  8
72_ARTEK_AKFURNITURE_D2_CH_SEA
 10
0.0534011
 20
-0.133581
 30
0
  0
VERTEX
  8
72_ARTEK_AKFURNITURE_D2_CH_SEA
 10
0.0530679
 20
-0.153578
 30
0
  0
VERTEX
  8
72_ARTEK_AKFURNITURE_D2_CH_SEA
 10
0.0544415
 20
-0.185908
 30
0
  0
VERTEX
  8
72_ARTEK_AKFURNITURE_D2_CH_SEA
 10
0.0545846
 20
-0.187874
 30
0
  0
VERTEX
  8
72_ARTEK_AKFURNITURE_D2_CH_SEA
 10
0.0547399
 20
-0.189846
 30
0
  0
VERTEX
  8
72_ARTEK_AKFURNITURE_D2_CH_SEA
 10
0.054912
 20
-0.191821
 30
0
  0
VERTEX
  8
72_ARTEK_AKFURNITURE_D2_CH_SEA
 10
0.0551052
 20
-0.193796
 30
0
  0
VERTEX
  8
72_ARTEK_AKFURNITURE_D2_CH_SEA
 10
0.055324
 20
-0.195769
 30
0
  0
VERTEX
  8
72_ARTEK_AKFURNITURE_D2_CH_SEA
 10
0.0555727
 20
-0.197739
 30
0
  0
VERTEX
  8
72_ARTEK_AKFURNITURE_D2_CH_SEA
 10
0.0558562
 20
-0.199702
 30
0
  0
VERTEX
  8
72_ARTEK_AKFURNITURE_D2_CH_SEA
 10
0.0561788
 20
-0.201656
 30
0
  0
VERTEX
  8
72_ARTEK_AKFURNITURE_D2_CH_SEA
 10
0.056545
 20
-0.2036
 30
0
  0
VERTEX
  8
72_ARTEK_AKFURNITURE_D2_CH_SEA
 10
0.0569592
 20
-0.205531
 30
0
  0
VERTEX
  8
72_ARTEK_AKFURNITURE_D2_CH_SEA
 10
0.0574255
 20
-0.207446
 30
0
  0
VERTEX
  8
72_ARTEK_AKFURNITURE_D2_CH_SEA
 10
0.0579491
 20
-0.209343
 30
0
  0
VERTEX
  8
72_ARTEK_AKFURNITURE_D2_CH_SEA
 10
0.0585342
 20
-0.211221
 30
0
  0
VERTEX
  8
72_ARTEK_AKFURNITURE_D2_CH_SEA
 10
0.0591848
 20
-0.213077
 30
0
  0
VERTEX
  8
72_ARTEK_AKFURNITURE_D2_CH_SEA
 10
0.0599062
 20
-0.214908
 30
0
  0
VERTEX
  8
72_ARTEK_AKFURNITURE_D2_CH_SEA
 10
0.0607024
 20
-0.216712
 30
0
  0
VERTEX
  8
72_ARTEK_AKFURNITURE_D2_CH_SEA
 10
0.061578
 20
-0.218488
 30
0
  0
VERTEX
  8
72_ARTEK_AKFURNITURE_D2_CH_SEA
 10
0.0625372
 20
-0.220233
 30
0
  0
VERTEX
  8
72_ARTEK_AKFURNITURE_D2_CH_SEA
 10
0.0635848
 20
-0.221944
 30
0
  0
VERTEX
  8
72_ARTEK_AKFURNITURE_D2_CH_SEA
 10
0.0647253
 20
-0.223619
 30
0
  0
VERTEX
  8
72_ARTEK_AKFURNITURE_D2_CH_SEA
 10
0.0732903
 20
-0.232071
 30
0
  0
VERTEX
  8
72_ARTEK_AKFURNITURE_D2_CH_SEA
 10
0.0746883
 20
-0.23317
 30
0
  0
VERTEX
  8
72_ARTEK_AKFURNITURE_D2_CH_SEA
 10
0.076119
 20
-0.23422
 30
0
  0
VERTEX
  8
72_ARTEK_AKFURNITURE_D2_CH_SEA
 10
0.0775802
 20
-0.235224
 30
0
  0
VERTEX
  8
72_ARTEK_AKFURNITURE_D2_CH_SEA
 10
0.0790701
 20
-0.236183
 30
0
  0
VERTEX
  8
72_ARTEK_AKFURNITURE_D2_CH_SEA
 10
0.0805868
 20
-0.237099
 30
0
  0
VERTEX
  8
72_ARTEK_AKFURNITURE_D2_CH_SEA
 10
0.0821282
 20
-0.237974
 30
0
  0
VERTEX
  8
72_ARTEK_AKFURNITURE_D2_CH_SEA
 10
0.0836925
 20
-0.23881
 30
0
  0
VERTEX
  8
72_ARTEK_AKFURNITURE_D2_CH_SEA
 10
0.0852779
 20
-0.23961
 30
0
  0
VERTEX
  8
72_ARTEK_AKFURNITURE_D2_CH_SEA
 10
0.0868819
 20
-0.240374
 30
0
  0
VERTEX
  8
72_ARTEK_AKFURNITURE_D2_CH_SEA
 10
0.0885033
 20
-0.241105
 30
0
  0
VERTEX
  8
72_ARTEK_AKFURNITURE_D2_CH_SEA
 10
0.0901397
 20
-0.241804
 30
0
  0
VERTEX
  8
72_ARTEK_AKFURNITURE_D2_CH_SEA
 10
0.0917892
 20
-0.242475
 30
0
  0
VERTEX
  8
72_ARTEK_AKFURNITURE_D2_CH_SEA
 10
0.0934496
 20
-0.243118
 30
0
  0
VERTEX
  8
72_ARTEK_AKFURNITURE_D2_CH_SEA
 10
0.0951196
 20
-0.243735
 30
0
  0
VERTEX
  8
72_ARTEK_AKFURNITURE_D2_CH_SEA
 10
0.0967968
 20
-0.244329
 30
0
  0
VERTEX
  8
72_ARTEK_AKFURNITURE_D2_CH_SEA
 10
0.0984792
 20
-0.244901
 30
0
  0
VERTEX
  8
72_ARTEK_AKFURNITURE_D2_CH_SEA
 10
0.100165
 20
-0.245453
 30
0
  0
VERTEX
  8
72_ARTEK_AKFURNITURE_D2_CH_SEA
 10
0.101853
 20
-0.245988
 30
0
  0
VERTEX
  8
72_ARTEK_AKFURNITURE_D2_CH_SEA
 10
0.10354
 20
-0.246507
 30
0
  0
VERTEX
  8
72_ARTEK_AKFURNITURE_D2_CH_SEA
 10
0.105225
 20
-0.247011
 30
0
  0
VERTEX
  8
72_ARTEK_AKFURNITURE_D2_CH_SEA
 10
0.108096
 20
-0.247839
 30
0
  0
VERTEX
  8
72_ARTEK_AKFURNITURE_D2_CH_SEA
 10
0.110976
 20
-0.248626
 30
0
  0
VERTEX
  8
72_ARTEK_AKFURNITURE_D2_CH_SEA
 10
0.113866
 20
-0.249374
 30
0
  0
VERTEX
  8
72_ARTEK_AKFURNITURE_D2_CH_SEA
 10
0.116763
 20
-0.250084
 30
0
  0
VERTEX
  8
72_ARTEK_AKFURNITURE_D2_CH_SEA
 10
0.119668
 20
-0.250757
 30
0
  0
VERTEX
  8
72_ARTEK_AKFURNITURE_D2_CH_SEA
 10
0.12258
 20
-0.251396
 30
0
  0
VERTEX
  8
72_ARTEK_AKFURNITURE_D2_CH_SEA
 10
0.125499
 20
-0.252002
 30
0
  0
VERTEX
  8
72_ARTEK_AKFURNITURE_D2_CH_SEA
 10
0.128424
 20
-0.252576
 30
0
  0
VERTEX
  8
72_ARTEK_AKFURNITURE_D2_CH_SEA
 10
0.131355
 20
-0.253119
 30
0
  0
VERTEX
  8
72_ARTEK_AKFURNITURE_D2_CH_SEA
 10
0.134292
 20
-0.253634
 30
0
  0
VERTEX
  8
72_ARTEK_AKFURNITURE_D2_CH_SEA
 10
0.137233
 20
-0.254122
 30
0
  0
VERTEX
  8
72_ARTEK_AKFURNITURE_D2_CH_SEA
 10
0.140179
 20
-0.254584
 30
0
  0
VERTEX
  8
72_ARTEK_AKFURNITURE_D2_CH_SEA
 10
0.143129
 20
-0.255022
 30
0
  0
VERTEX
  8
72_ARTEK_AKFURNITURE_D2_CH_SEA
 10
0.146083
 20
-0.255438
 30
0
  0
VERTEX
  8
72_ARTEK_AKFURNITURE_D2_CH_SEA
 10
0.14904
 20
-0.255833
 30
0
  0
VERTEX
  8
72_ARTEK_AKFURNITURE_D2_CH_SEA
 10
0.152
 20
-0.256208
 30
0
  0
VERTEX
  8
72_ARTEK_AKFURNITURE_D2_CH_SEA
 10
0.154962
 20
-0.256565
 30
0
  0
VERTEX
  8
72_ARTEK_AKFURNITURE_D2_CH_SEA
 10
0.157926
 20
-0.256906
 30
0
  0
VERTEX
  8
72_ARTEK_AKFURNITURE_D2_CH_SEA
 10
0.160892
 20
-0.257232
 30
0
  0
VERTEX
  8
72_ARTEK_AKFURNITURE_D2_CH_SEA
 10
0.163858
 20
-0.257545
 30
0
  0
VERTEX
  8
72_ARTEK_AKFURNITURE_D2_CH_SEA
 10
0.169105
 20
-0.258065
 30
0
  0
VERTEX
  8
72_ARTEK_AKFURNITURE_D2_CH_SEA
 10
0.174354
 20
-0.258545
 30
0
  0
VERTEX
  8
72_ARTEK_AKFURNITURE_D2_CH_SEA
 10
0.179606
 20
-0.258985
 30
0
  0
VERTEX
  8
72_ARTEK_AKFURNITURE_D2_CH_SEA
 10
0.18486
 20
-0.259387
 30
0
  0
VERTEX
  8
72_ARTEK_AKFURNITURE_D2_CH_SEA
 10
0.190115
 20
-0.259754
 30
0
  0
VERTEX
  8
72_ARTEK_AKFURNITURE_D2_CH_SEA
 10
0.195373
 20
-0.260087
 30
0
  0
VERTEX
  8
72_ARTEK_AKFURNITURE_D2_CH_SEA
 10
0.200632
 20
-0.260388
 30
0
  0
VERTEX
  8
72_ARTEK_AKFURNITURE_D2_CH_SEA
 10
0.205893
 20
-0.260659
 30
0
  0
VERTEX
  8
72_ARTEK_AKFURNITURE_D2_CH_SEA
 10
0.211156
 20
-0.260901
 30
0
  0
VERTEX
  8
72_ARTEK_AKFURNITURE_D2_CH_SEA
 10
0.216419
 20
-0.261117
 30
0
  0
VERTEX
  8
72_ARTEK_AKFURNITURE_D2_CH_SEA
 10
0.221684
 20
-0.261308
 30
0
  0
VERTEX
  8
72_ARTEK_AKFURNITURE_D2_CH_SEA
 10
0.22695
 20
-0.261476
 30
0
  0
VERTEX
  8
72_ARTEK_AKFURNITURE_D2_CH_SEA
 10
0.232217
 20
-0.261623
 30
0
  0
VERTEX
  8
72_ARTEK_AKFURNITURE_D2_CH_SEA
 10
0.237485
 20
-0.261751
 30
0
  0
VERTEX
  8
72_ARTEK_AKFURNITURE_D2_CH_SEA
 10
0.242754
 20
-0.261862
 30
0
  0
VERTEX
  8
72_ARTEK_AKFURNITURE_D2_CH_SEA
 10
0.248022
 20
-0.261957
 30
0
  0
VERTEX
  8
72_ARTEK_AKFURNITURE_D2_CH_SEA
 10
0.253292
 20
-0.262038
 30
0
  0
VERTEX
  8
72_ARTEK_AKFURNITURE_D2_CH_SEA
 10
0.258561
 20
-0.262107
 30
0
  0
VERTEX
  8
72_ARTEK_AKFURNITURE_D2_CH_SEA
 10
0.263831
 20
-0.262166
 30
0
  0
VERTEX
  8
72_ARTEK_AKFURNITURE_D2_CH_SEA
 10
0.269101
 20
-0.262217
 30
0
  0
VERTEX
  8
72_ARTEK_AKFURNITURE_D2_CH_SEA
 10
0.275837
 20
-0.262274
 30
0
  0
VERTEX
  8
72_ARTEK_AKFURNITURE_D2_CH_SEA
 10
0.282576
 20
-0.26232
 30
0
  0
VERTEX
  8
72_ARTEK_AKFURNITURE_D2_CH_SEA
 10
0.2891
 20
-0.262352
 30
0
  0
VERTEX
  8
72_ARTEK_AKFURNITURE_D2_CH_SEA
 10
0.295624
 20
-0.26232
 30
0
  0
VERTEX
  8
72_ARTEK_AKFURNITURE_D2_CH_SEA
 10
0.302363
 20
-0.262274
 30
0
  0
VERTEX
  8
72_ARTEK_AKFURNITURE_D2_CH_SEA
 10
0.309099
 20
-0.262217
 30
0
  0
VERTEX
  8
72_ARTEK_AKFURNITURE_D2_CH_SEA
 10
0.314369
 20
-0.262166
 30
0
  0
VERTEX
  8
72_ARTEK_AKFURNITURE_D2_CH_SEA
 10
0.319639
 20
-0.262107
 30
0
  0
VERTEX
  8
72_ARTEK_AKFURNITURE_D2_CH_SEA
 10
0.324908
 20
-0.262038
 30
0
  0
VERTEX
  8
72_ARTEK_AKFURNITURE_D2_CH_SEA
 10
0.330178
 20
-0.261957
 30
0
  0
VERTEX
  8
72_ARTEK_AKFURNITURE_D2_CH_SEA
 10
0.335446
 20
-0.261862
 30
0
  0
VERTEX
  8
72_ARTEK_AKFURNITURE_D2_CH_SEA
 10
0.340715
 20
-0.261751
 30
0
  0
VERTEX
  8
72_ARTEK_AKFURNITURE_D2_CH_SEA
 10
0.345983
 20
-0.261623
 30
0
  0
VERTEX
  8
72_ARTEK_AKFURNITURE_D2_CH_SEA
 10
0.35125
 20
-0.261476
 30
0
  0
VERTEX
  8
72_ARTEK_AKFURNITURE_D2_CH_SEA
 10
0.356516
 20
-0.261308
 30
0
  0
VERTEX
  8
72_ARTEK_AKFURNITURE_D2_CH_SEA
 10
0.361781
 20
-0.261117
 30
0
  0
VERTEX
  8
72_ARTEK_AKFURNITURE_D2_CH_SEA
 10
0.367044
 20
-0.260901
 30
0
  0
VERTEX
  8
72_ARTEK_AKFURNITURE_D2_CH_SEA
 10
0.372307
 20
-0.260659
 30
0
  0
VERTEX
  8
72_ARTEK_AKFURNITURE_D2_CH_SEA
 10
0.377568
 20
-0.260388
 30
0
  0
VERTEX
  8
72_ARTEK_AKFURNITURE_D2_CH_SEA
 10
0.382827
 20
-0.260087
 30
0
  0
VERTEX
  8
72_ARTEK_AKFURNITURE_D2_CH_SEA
 10
0.388085
 20
-0.259754
 30
0
  0
VERTEX
  8
72_ARTEK_AKFURNITURE_D2_CH_SEA
 10
0.39334
 20
-0.259387
 30
0
  0
VERTEX
  8
72_ARTEK_AKFURNITURE_D2_CH_SEA
 10
0.398594
 20
-0.258985
 30
0
  0
VERTEX
  8
72_ARTEK_AKFURNITURE_D2_CH_SEA
 10
0.403846
 20
-0.258545
 30
0
  0
VERTEX
  8
72_ARTEK_AKFURNITURE_D2_CH_SEA
 10
0.409095
 20
-0.258065
 30
0
  0
VERTEX
  8
72_ARTEK_AKFURNITURE_D2_CH_SEA
 10
0.414342
 20
-0.257545
 30
0
  0
VERTEX
  8
72_ARTEK_AKFURNITURE_D2_CH_SEA
 10
0.417308
 20
-0.257232
 30
0
  0
VERTEX
  8
72_ARTEK_AKFURNITURE_D2_CH_SEA
 10
0.420274
 20
-0.256906
 30
0
  0
VERTEX
  8
72_ARTEK_AKFURNITURE_D2_CH_SEA
 10
0.423238
 20
-0.256565
 30
0
  0
VERTEX
  8
72_ARTEK_AKFURNITURE_D2_CH_SEA
 10
0.4262
 20
-0.256208
 30
0
  0
VERTEX
  8
72_ARTEK_AKFURNITURE_D2_CH_SEA
 10
0.42916
 20
-0.255833
 30
0
  0
VERTEX
  8
72_ARTEK_AKFURNITURE_D2_CH_SEA
 10
0.432117
 20
-0.255438
 30
0
  0
VERTEX
  8
72_ARTEK_AKFURNITURE_D2_CH_SEA
 10
0.435071
 20
-0.255022
 30
0
  0
VERTEX
  8
72_ARTEK_AKFURNITURE_D2_CH_SEA
 10
0.438021
 20
-0.254584
 30
0
  0
VERTEX
  8
72_ARTEK_AKFURNITURE_D2_CH_SEA
 10
0.440967
 20
-0.254122
 30
0
  0
VERTEX
  8
72_ARTEK_AKFURNITURE_D2_CH_SEA
 10
0.443908
 20
-0.253634
 30
0
  0
VERTEX
  8
72_ARTEK_AKFURNITURE_D2_CH_SEA
 10
0.446845
 20
-0.253119
 30
0
  0
VERTEX
  8
72_ARTEK_AKFURNITURE_D2_CH_SEA
 10
0.449776
 20
-0.252576
 30
0
  0
VERTEX
  8
72_ARTEK_AKFURNITURE_D2_CH_SEA
 10
0.452701
 20
-0.252002
 30
0
  0
VERTEX
  8
72_ARTEK_AKFURNITURE_D2_CH_SEA
 10
0.45562
 20
-0.251396
 30
0
  0
VERTEX
  8
72_ARTEK_AKFURNITURE_D2_CH_SEA
 10
0.458532
 20
-0.250757
 30
0
  0
VERTEX
  8
72_ARTEK_AKFURNITURE_D2_CH_SEA
 10
0.461437
 20
-0.250084
 30
0
  0
VERTEX
  8
72_ARTEK_AKFURNITURE_D2_CH_SEA
 10
0.464334
 20
-0.249374
 30
0
  0
VERTEX
  8
72_ARTEK_AKFURNITURE_D2_CH_SEA
 10
0.467223
 20
-0.248626
 30
0
  0
VERTEX
  8
72_ARTEK_AKFURNITURE_D2_CH_SEA
 10
0.470104
 20
-0.247839
 30
0
  0
VERTEX
  8
72_ARTEK_AKFURNITURE_D2_CH_SEA
 10
0.472975
 20
-0.247011
 30
0
  0
VERTEX
  8
72_ARTEK_AKFURNITURE_D2_CH_SEA
 10
0.47466
 20
-0.246507
 30
0
  0
VERTEX
  8
72_ARTEK_AKFURNITURE_D2_CH_SEA
 10
0.476347
 20
-0.245988
 30
0
  0
VERTEX
  8
72_ARTEK_AKFURNITURE_D2_CH_SEA
 10
0.478035
 20
-0.245453
 30
0
  0
VERTEX
  8
72_ARTEK_AKFURNITURE_D2_CH_SEA
 10
0.479721
 20
-0.244901
 30
0
  0
VERTEX
  8
72_ARTEK_AKFURNITURE_D2_CH_SEA
 10
0.481403
 20
-0.244329
 30
0
  0
VERTEX
  8
72_ARTEK_AKFURNITURE_D2_CH_SEA
 10
0.48308
 20
-0.243735
 30
0
  0
VERTEX
  8
72_ARTEK_AKFURNITURE_D2_CH_SEA
 10
0.48475
 20
-0.243118
 30
0
  0
VERTEX
  8
72_ARTEK_AKFURNITURE_D2_CH_SEA
 10
0.486411
 20
-0.242475
 30
0
  0
VERTEX
  8
72_ARTEK_AKFURNITURE_D2_CH_SEA
 10
0.48806
 20
-0.241804
 30
0
  0
VERTEX
  8
72_ARTEK_AKFURNITURE_D2_CH_SEA
 10
0.489697
 20
-0.241105
 30
0
  0
VERTEX
  8
72_ARTEK_AKFURNITURE_D2_CH_SEA
 10
0.491318
 20
-0.240374
 30
0
  0
VERTEX
  8
72_ARTEK_AKFURNITURE_D2_CH_SEA
 10
0.492922
 20
-0.23961
 30
0
  0
VERTEX
  8
72_ARTEK_AKFURNITURE_D2_CH_SEA
 10
0.494507
 20
-0.23881
 30
0
  0
VERTEX
  8
72_ARTEK_AKFURNITURE_D2_CH_SEA
 10
0.496072
 20
-0.237974
 30
0
  0
VERTEX
  8
72_ARTEK_AKFURNITURE_D2_CH_SEA
 10
0.497613
 20
-0.237099
 30
0
  0
VERTEX
  8
72_ARTEK_AKFURNITURE_D2_CH_SEA
 10
0.49913
 20
-0.236183
 30
0
  0
VERTEX
  8
72_ARTEK_AKFURNITURE_D2_CH_SEA
 10
0.50062
 20
-0.235224
 30
0
  0
VERTEX
  8
72_ARTEK_AKFURNITURE_D2_CH_SEA
 10
0.502081
 20
-0.23422
 30
0
  0
VERTEX
  8
72_ARTEK_AKFURNITURE_D2_CH_SEA
 10
0.503512
 20
-0.23317
 30
0
  0
VERTEX
  8
72_ARTEK_AKFURNITURE_D2_CH_SEA
 10
0.50491
 20
-0.232071
 30
0
  0
VERTEX
  8
72_ARTEK_AKFURNITURE_D2_CH_SEA
 10
0.513475
 20
-0.223619
 30
0
  0
VERTEX
  8
72_ARTEK_AKFURNITURE_D2_CH_SEA
 10
0.514615
 20
-0.221944
 30
0
  0
VERTEX
  8
72_ARTEK_AKFURNITURE_D2_CH_SEA
 10
0.515663
 20
-0.220233
 30
0
  0
VERTEX
  8
72_ARTEK_AKFURNITURE_D2_CH_SEA
 10
0.516622
 20
-0.218488
 30
0
  0
VERTEX
  8
72_ARTEK_AKFURNITURE_D2_CH_SEA
 10
0.517497
 20
-0.216712
 30
0
  0
VERTEX
  8
72_ARTEK_AKFURNITURE_D2_CH_SEA
 10
0.518294
 20
-0.214908
 30
0
  0
VERTEX
  8
72_ARTEK_AKFURNITURE_D2_CH_SEA
 10
0.519015
 20
-0.213077
 30
0
  0
VERTEX
  8
72_ARTEK_AKFURNITURE_D2_CH_SEA
 10
0.519666
 20
-0.211221
 30
0
  0
VERTEX
  8
72_ARTEK_AKFURNITURE_D2_CH_SEA
 10
0.520251
 20
-0.209343
 30
0
  0
VERTEX
  8
72_ARTEK_AKFURNITURE_D2_CH_SEA
 10
0.520774
 20
-0.207446
 30
0
  0
VERTEX
  8
72_ARTEK_AKFURNITURE_D2_CH_SEA
 10
0.521241
 20
-0.205531
 30
0
  0
VERTEX
  8
72_ARTEK_AKFURNITURE_D2_CH_SEA
 10
0.521655
 20
-0.2036
 30
0
  0
VERTEX
  8
72_ARTEK_AKFURNITURE_D2_CH_SEA
 10
0.522021
 20
-0.201656
 30
0
  0
VERTEX
  8
72_ARTEK_AKFURNITURE_D2_CH_SEA
 10
0.522344
 20
-0.199702
 30
0
  0
VERTEX
  8
72_ARTEK_AKFURNITURE_D2_CH_SEA
 10
0.522627
 20
-0.197739
 30
0
  0
VERTEX
  8
72_ARTEK_AKFURNITURE_D2_CH_SEA
 10
0.522876
 20
-0.195769
 30
0
  0
VERTEX
  8
72_ARTEK_AKFURNITURE_D2_CH_SEA
 10
0.523095
 20
-0.193796
 30
0
  0
VERTEX
  8
72_ARTEK_AKFURNITURE_D2_CH_SEA
 10
0.523288
 20
-0.191821
 30
0
  0
VERTEX
  8
72_ARTEK_AKFURNITURE_D2_CH_SEA
 10
0.52346
 20
-0.189846
 30
0
  0
VERTEX
  8
72_ARTEK_AKFURNITURE_D2_CH_SEA
 10
0.523615
 20
-0.187874
 30
0
  0
VERTEX
  8
72_ARTEK_AKFURNITURE_D2_CH_SEA
 10
0.523758
 20
-0.185908
 30
0
  0
VERTEX
  8
72_ARTEK_AKFURNITURE_D2_CH_SEA
 10
0.525132
 20
-0.153578
 30
0
  0
VERTEX
  8
72_ARTEK_AKFURNITURE_D2_CH_SEA
 10
0.524799
 20
-0.133581
 30
0
  0
VERTEX
  8
72_ARTEK_AKFURNITURE_D2_CH_SEA
 10
0.523715
 20
-0.0685089
 30
0
  0
VERTEX
  8
72_ARTEK_AKFURNITURE_D2_CH_SEA
 10
0.523639
 20
-0.0641682
 30
0
  0
VERTEX
  8
72_ARTEK_AKFURNITURE_D2_CH_SEA
 10
0.523558
 20
-0.0598286
 30
0
  0
VERTEX
  8
72_ARTEK_AKFURNITURE_D2_CH_SEA
 10
0.523468
 20
-0.0554901
 30
0
  0
VERTEX
  8
72_ARTEK_AKFURNITURE_D2_CH_SEA
 10
0.523368
 20
-0.0511528
 30
0
  0
VERTEX
  8
72_ARTEK_AKFURNITURE_D2_CH_SEA
 10
0.523256
 20
-0.0468166
 30
0
  0
VERTEX
  8
72_ARTEK_AKFURNITURE_D2_CH_SEA
 10
0.523132
 20
-0.0424814
 30
0
  0
VERTEX
  8
72_ARTEK_AKFURNITURE_D2_CH_SEA
 10
0.522993
 20
-0.0381474
 30
0
  0
VERTEX
  8
72_ARTEK_AKFURNITURE_D2_CH_SEA
 10
0.522838
 20
-0.0338147
 30
0
  0
VERTEX
  8
72_ARTEK_AKFURNITURE_D2_CH_SEA
 10
0.522666
 20
-0.029483
 30
0
  0
VERTEX
  8
72_ARTEK_AKFURNITURE_D2_CH_SEA
 10
0.522474
 20
-0.0251527
 30
0
  0
VERTEX
  8
72_ARTEK_AKFURNITURE_D2_CH_SEA
 10
0.522261
 20
-0.0208235
 30
0
  0
VERTEX
  8
72_ARTEK_AKFURNITURE_D2_CH_SEA
 10
0.522025
 20
-0.0164955
 30
0
  0
VERTEX
  8
72_ARTEK_AKFURNITURE_D2_CH_SEA
 10
0.521766
 20
-0.0121689
 30
0
  0
VERTEX
  8
72_ARTEK_AKFURNITURE_D2_CH_SEA
 10
0.521481
 20
-0.00784348
 30
0
  0
VERTEX
  8
72_ARTEK_AKFURNITURE_D2_CH_SEA
 10
0.521168
 20
-0.00351929
 30
0
  0
VERTEX
  8
72_ARTEK_AKFURNITURE_D2_CH_SEA
 10
0.520827
 20
0.000803672
 30
0
  0
VERTEX
  8
72_ARTEK_AKFURNITURE_D2_CH_SEA
 10
0.520456
 20
0.00512527
 30
0
  0
VERTEX
  8
72_ARTEK_AKFURNITURE_D2_CH_SEA
 10
0.520052
 20
0.00944549
 30
0
  0
VERTEX
  8
72_ARTEK_AKFURNITURE_D2_CH_SEA
 10
0.519615
 20
0.0137643
 30
0
  0
VERTEX
  8
72_ARTEK_AKFURNITURE_D2_CH_SEA
 10
0.519142
 20
0.018082
 30
0
  0
VERTEX
  8
72_ARTEK_AKFURNITURE_D2_CH_SEA
 10
0.518623
 20
0.0224086
 30
0
  0
VERTEX
  8
72_ARTEK_AKFURNITURE_D2_CH_SEA
 10
0.518044
 20
0.0267335
 30
0
  0
VERTEX
  8
72_ARTEK_AKFURNITURE_D2_CH_SEA
 10
0.517397
 20
0.0310519
 30
0
  0
VERTEX
  8
72_ARTEK_AKFURNITURE_D2_CH_SEA
 10
0.516676
 20
0.0353581
 30
0
  0
VERTEX
  8
72_ARTEK_AKFURNITURE_D2_CH_SEA
 10
0.515873
 20
0.0396471
 30
0
  0
VERTEX
  8
72_ARTEK_AKFURNITURE_D2_CH_SEA
 10
0.514981
 20
0.0439134
 30
0
  0
VERTEX
  8
72_ARTEK_AKFURNITURE_D2_CH_SEA
 10
0.513994
 20
0.0481519
 30
0
  0
VERTEX
  8
72_ARTEK_AKFURNITURE_D2_CH_SEA
 10
0.512903
 20
0.0523572
 30
0
  0
VERTEX
  8
72_ARTEK_AKFURNITURE_D2_CH_SEA
 10
0.511702
 20
0.056524
 30
0
  0
VERTEX
  8
72_ARTEK_AKFURNITURE_D2_CH_SEA
 10
0.510384
 20
0.0606471
 30
0
  0
VERTEX
  8
72_ARTEK_AKFURNITURE_D2_CH_SEA
 10
0.50894
 20
0.0647212
 30
0
  0
VERTEX
  8
72_ARTEK_AKFURNITURE_D2_CH_SEA
 10
0.507366
 20
0.0687411
 30
0
  0
VERTEX
  8
72_ARTEK_AKFURNITURE_D2_CH_SEA
 10
0.505652
 20
0.0727014
 30
0
  0
VERTEX
  8
72_ARTEK_AKFURNITURE_D2_CH_SEA
 10
0.503792
 20
0.0765968
 30
0
  0
VERTEX
  8
72_ARTEK_AKFURNITURE_D2_CH_SEA
 10
0.501779
 20
0.0804222
 30
0
  0
VERTEX
  8
72_ARTEK_AKFURNITURE_D2_CH_SEA
 10
0.499606
 20
0.0841721
 30
0
  0
VERTEX
  8
72_ARTEK_AKFURNITURE_D2_CH_SEA
 10
0.497266
 20
0.0878413
 30
0
  0
VERTEX
  8
72_ARTEK_AKFURNITURE_D2_CH_SEA
 10
0.49475
 20
0.0914247
 30
0
  0
VERTEX
  8
72_ARTEK_AKFURNITURE_D2_CH_SEA
 10
0.492053
 20
0.0949168
 30
0
  0
VERTEX
  8
72_ARTEK_AKFURNITURE_D2_CH_SEA
 10
0.489167
 20
0.0983124
 30
0
  0
VERTEX
  8
72_ARTEK_AKFURNITURE_D2_CH_SEA
 10
0.487405
 20
0.100226
 30
0
  0
VERTEX
  8
72_ARTEK_AKFURNITURE_D2_CH_SEA
 10
0.485586
 20
0.102084
 30
0
  0
VERTEX
  8
72_ARTEK_AKFURNITURE_D2_CH_SEA
 10
0.483711
 20
0.103887
 30
0
  0
VERTEX
  8
72_ARTEK_AKFURNITURE_D2_CH_SEA
 10
0.481785
 20
0.105638
 30
0
  0
VERTEX
  8
72_ARTEK_AKFURNITURE_D2_CH_SEA
 10
0.47981
 20
0.107337
 30
0
  0
VERTEX
  8
72_ARTEK_AKFURNITURE_D2_CH_SEA
 10
0.47779
 20
0.108986
 30
0
  0
VERTEX
  8
72_ARTEK_AKFURNITURE_D2_CH_SEA
 10
0.475727
 20
0.110586
 30
0
  0
VERTEX
  8
72_ARTEK_AKFURNITURE_D2_CH_SEA
 10
0.473626
 20
0.112139
 30
0
  0
VERTEX
  8
72_ARTEK_AKFURNITURE_D2_CH_SEA
 10
0.471488
 20
0.113647
 30
0
  0
VERTEX
  8
72_ARTEK_AKFURNITURE_D2_CH_SEA
 10
0.469317
 20
0.11511
 30
0
  0
VERTEX
  8
72_ARTEK_AKFURNITURE_D2_CH_SEA
 10
0.467117
 20
0.116531
 30
0
  0
VERTEX
  8
72_ARTEK_AKFURNITURE_D2_CH_SEA
 10
0.464889
 20
0.11791
 30
0
  0
VERTEX
  8
72_ARTEK_AKFURNITURE_D2_CH_SEA
 10
0.462638
 20
0.119249
 30
0
  0
VERTEX
  8
72_ARTEK_AKFURNITURE_D2_CH_SEA
 10
0.460366
 20
0.12055
 30
0
  0
VERTEX
  8
72_ARTEK_AKFURNITURE_D2_CH_SEA
 10
0.458077
 20
0.121814
 30
0
  0
VERTEX
  8
72_ARTEK_AKFURNITURE_D2_CH_SEA
 10
0.455774
 20
0.123043
 30
0
  0
VERTEX
  8
72_ARTEK_AKFURNITURE_D2_CH_SEA
 10
0.453459
 20
0.124237
 30
0
  0
VERTEX
  8
72_ARTEK_AKFURNITURE_D2_CH_SEA
 10
0.451136
 20
0.125399
 30
0
  0
VERTEX
  8
72_ARTEK_AKFURNITURE_D2_CH_SEA
 10
0.448809
 20
0.12653
 30
0
  0
VERTEX
  8
72_ARTEK_AKFURNITURE_D2_CH_SEA
 10
0.446479
 20
0.127631
 30
0
  0
VERTEX
  8
72_ARTEK_AKFURNITURE_D2_CH_SEA
 10
0.442457
 20
0.12946
 30
0
  0
VERTEX
  8
72_ARTEK_AKFURNITURE_D2_CH_SEA
 10
0.438409
 20
0.131209
 30
0
  0
VERTEX
  8
72_ARTEK_AKFURNITURE_D2_CH_SEA
 10
0.434335
 20
0.13288
 30
0
  0
VERTEX
  8
72_ARTEK_AKFURNITURE_D2_CH_SEA
 10
0.430236
 20
0.134475
 30
0
  0
VERTEX
  8
72_ARTEK_AKFURNITURE_D2_CH_SEA
 10
0.426114
 20
0.135999
 30
0
  0
VERTEX
  8
72_ARTEK_AKFURNITURE_D2_CH_SEA
 10
0.42197
 20
0.137452
 30
0
  0
VERTEX
  8
72_ARTEK_AKFURNITURE_D2_CH_SEA
 10
0.417804
 20
0.138838
 30
0
  0
VERTEX
  8
72_ARTEK_AKFURNITURE_D2_CH_SEA
 10
0.413619
 20
0.14016
 30
0
  0
VERTEX
  8
72_ARTEK_AKFURNITURE_D2_CH_SEA
 10
0.409414
 20
0.141419
 30
0
  0
VERTEX
  8
72_ARTEK_AKFURNITURE_D2_CH_SEA
 10
0.405192
 20
0.142619
 30
0
  0
VERTEX
  8
72_ARTEK_AKFURNITURE_D2_CH_SEA
 10
0.400952
 20
0.143762
 30
0
  0
VERTEX
  8
72_ARTEK_AKFURNITURE_D2_CH_SEA
 10
0.396697
 20
0.144851
 30
0
  0
VERTEX
  8
72_ARTEK_AKFURNITURE_D2_CH_SEA
 10
0.392427
 20
0.145889
 30
0
  0
VERTEX
  8
72_ARTEK_AKFURNITURE_D2_CH_SEA
 10
0.388144
 20
0.146877
 30
0
  0
VERTEX
  8
72_ARTEK_AKFURNITURE_D2_CH_SEA
 10
0.383848
 20
0.147819
 30
0
  0
VERTEX
  8
72_ARTEK_AKFURNITURE_D2_CH_SEA
 10
0.379541
 20
0.148717
 30
0
  0
VERTEX
  8
72_ARTEK_AKFURNITURE_D2_CH_SEA
 10
0.375224
 20
0.149575
 30
0
  0
VERTEX
  8
72_ARTEK_AKFURNITURE_D2_CH_SEA
 10
0.370897
 20
0.150394
 30
0
  0
VERTEX
  8
72_ARTEK_AKFURNITURE_D2_CH_SEA
 10
0.366562
 20
0.151176
 30
0
  0
VERTEX
  8
72_ARTEK_AKFURNITURE_D2_CH_SEA
 10
0.362221
 20
0.151926
 30
0
  0
VERTEX
  8
72_ARTEK_AKFURNITURE_D2_CH_SEA
 10
0.357663
 20
0.152669
 30
0
  0
VERTEX
  8
72_ARTEK_AKFURNITURE_D2_CH_SEA
 10
0.353106
 20
0.153358
 30
0
  0
VERTEX
  8
72_ARTEK_AKFURNITURE_D2_CH_SEA
 10
0.348549
 20
0.153994
 30
0
  0
VERTEX
  8
72_ARTEK_AKFURNITURE_D2_CH_SEA
 10
0.343991
 20
0.154579
 30
0
  0
VERTEX
  8
72_ARTEK_AKFURNITURE_D2_CH_SEA
 10
0.339433
 20
0.155113
 30
0
  0
VERTEX
  8
72_ARTEK_AKFURNITURE_D2_CH_SEA
 10
0.334873
 20
0.155597
 30
0
  0
VERTEX
  8
72_ARTEK_AKFURNITURE_D2_CH_SEA
 10
0.330311
 20
0.156032
 30
0
  0
VERTEX
  8
72_ARTEK_AKFURNITURE_D2_CH_SEA
 10
0.325748
 20
0.156419
 30
0
  0
VERTEX
  8
72_ARTEK_AKFURNITURE_D2_CH_SEA
 10
0.321182
 20
0.156759
 30
0
  0
VERTEX
  8
72_ARTEK_AKFURNITURE_D2_CH_SEA
 10
0.316614
 20
0.157053
 30
0
  0
VERTEX
  8
72_ARTEK_AKFURNITURE_D2_CH_SEA
 10
0.312043
 20
0.157301
 30
0
  0
VERTEX
  8
72_ARTEK_AKFURNITURE_D2_CH_SEA
 10
0.307468
 20
0.157505
 30
0
  0
VERTEX
  8
72_ARTEK_AKFURNITURE_D2_CH_SEA
 10
0.302891
 20
0.157666
 30
0
  0
VERTEX
  8
72_ARTEK_AKFURNITURE_D2_CH_SEA
 10
0.298309
 20
0.157784
 30
0
  0
VERTEX
  8
72_ARTEK_AKFURNITURE_D2_CH_SEA
 10
0.293723
 20
0.15786
 30
0
  0
VERTEX
  8
72_ARTEK_AKFURNITURE_D2_CH_SEA
 10
0.289133
 20
0.157895
 30
0
  0
VERTEX
  8
72_ARTEK_AKFURNITURE_D2_CH_SEA
 10
0.2891
 20
0.157895
 30
0
  0
SEQEND
  0
POLYLINE
  8
72_ARTEK_AKFURNITURE_D2SNAP
 66
     1
 70
     0
 10
0.0
 20
0.0
 30
0.0
  0
VERTEX
  8
72_ARTEK_AKFURNITURE_D2SNAP
 10
0.3016
 20
-0
 30
0
  0
VERTEX
  8
72_ARTEK_AKFURNITURE_D2SNAP
 10
0.30136
 20
0.00243863
 30
0
  0
VERTEX
  8
72_ARTEK_AKFURNITURE_D2SNAP
 10
0.300648
 20
0.00478354
 30
0
  0
VERTEX
  8
72_ARTEK_AKFURNITURE_D2SNAP
 10
0.299493
 20
0.00694463
 30
0
  0
VERTEX
  8
72_ARTEK_AKFURNITURE_D2SNAP
 10
0.297939
 20
0.00883883
 30
0
  0
VERTEX
  8
72_ARTEK_AKFURNITURE_D2SNAP
 10
0.296045
 20
0.0103934
 30
0
  0
VERTEX
  8
72_ARTEK_AKFURNITURE_D2SNAP
 10
0.293884
 20
0.0115485
 30
0
  0
VERTEX
  8
72_ARTEK_AKFURNITURE_D2SNAP
 10
0.291539
 20
0.0122598
 30
0
  0
VERTEX
  8
72_ARTEK_AKFURNITURE_D2SNAP
 10
0.2891
 20
0.0125
 30
0
  0
VERTEX
  8
72_ARTEK_AKFURNITURE_D2SNAP
 10
0.286661
 20
0.0122598
 30
0
  0
VERTEX
  8
72_ARTEK_AKFURNITURE_D2SNAP
 10
0.284316
 20
0.0115485
 30
0
  0
VERTEX
  8
72_ARTEK_AKFURNITURE_D2SNAP
 10
0.282155
 20
0.0103934
 30
0
  0
VERTEX
  8
72_ARTEK_AKFURNITURE_D2SNAP
 10
0.280261
 20
0.00883883
 30
0
  0
VERTEX
  8
72_ARTEK_AKFURNITURE_D2SNAP
 10
0.278707
 20
0.00694463
 30
0
  0
VERTEX
  8
72_ARTEK_AKFURNITURE_D2SNAP
 10
0.277552
 20
0.00478354
 30
0
  0
VERTEX
  8
72_ARTEK_AKFURNITURE_D2SNAP
 10
0.27684
 20
0.00243863
 30
0
  0
VERTEX
  8
72_ARTEK_AKFURNITURE_D2SNAP
 10
0.2766
 20
3.15316e-018
 30
0
  0
VERTEX
  8
72_ARTEK_AKFURNITURE_D2SNAP
 10
0.27684
 20
-0.00243863
 30
0
  0
VERTEX
  8
72_ARTEK_AKFURNITURE_D2SNAP
 10
0.277552
 20
-0.00478354
 30
0
  0
VERTEX
  8
72_ARTEK_AKFURNITURE_D2SNAP
 10
0.278707
 20
-0.00694463
 30
0
  0
VERTEX
  8
72_ARTEK_AKFURNITURE_D2SNAP
 10
0.280261
 20
-0.00883883
 30
0
  0
VERTEX
  8
72_ARTEK_AKFURNITURE_D2SNAP
 10
0.282155
 20
-0.0103934
 30
0
  0
VERTEX
  8
72_ARTEK_AKFURNITURE_D2SNAP
 10
0.284316
 20
-0.0115485
 30
0
  0
VERTEX
  8
72_ARTEK_AKFURNITURE_D2SNAP
 10
0.286661
 20
-0.0122598
 30
0
  0
VERTEX
  8
72_ARTEK_AKFURNITURE_D2SNAP
 10
0.2891
 20
-0.0125
 30
0
  0
VERTEX
  8
72_ARTEK_AKFURNITURE_D2SNAP
 10
0.291539
 20
-0.0122598
 30
0
  0
VERTEX
  8
72_ARTEK_AKFURNITURE_D2SNAP
 10
0.293884
 20
-0.0115485
 30
0
  0
VERTEX
  8
72_ARTEK_AKFURNITURE_D2SNAP
 10
0.296045
 20
-0.0103934
 30
0
  0
VERTEX
  8
72_ARTEK_AKFURNITURE_D2SNAP
 10
0.297939
 20
-0.00883883
 30
0
  0
VERTEX
  8
72_ARTEK_AKFURNITURE_D2SNAP
 10
0.299493
 20
-0.00694463
 30
0
  0
VERTEX
  8
72_ARTEK_AKFURNITURE_D2SNAP
 10
0.300648
 20
-0.00478354
 30
0
  0
VERTEX
  8
72_ARTEK_AKFURNITURE_D2SNAP
 10
0.30136
 20
-0.00243863
 30
0
  0
VERTEX
  8
72_ARTEK_AKFURNITURE_D2SNAP
 10
0.3016
 20
-0
 30
0
  0
SEQEND
  0
POLYLINE
  8
72_ARTEK_AKFURNITURE_D2SNAP
 66
     1
 70
     0
 10
0.0
 20
0.0
 30
0.0
  0
VERTEX
  8
72_ARTEK_AKFURNITURE_D2SNAP
 10
0.271422
 20
-0.0176777
 30
0
  0
VERTEX
  8
72_ARTEK_AKFURNITURE_D2SNAP
 10
0.306778
 20
0.0176777
 30
0
  0
SEQEND
  0
POLYLINE
  8
72_ARTEK_AKFURNITURE_D2SNAP
 66
     1
 70
     0
 10
0.0
 20
0.0
 30
0.0
  0
VERTEX
  8
72_ARTEK_AKFURNITURE_D2SNAP
 10
0.271422
 20
0.0176777
 30
0
  0
VERTEX
  8
72_ARTEK_AKFURNITURE_D2SNAP
 10
0.306778
 20
-0.0176777
 30
0
  0
SEQEND
  0
ENDBLK
  8
0
  0
BLOCK
  8
0
  2
OB2D__000001
 70
    64
 10
0.0
 20
0.0
 30
0.0
  3
OB2D__000001
  0
ENDBLK
  8
0
  0
ENDSEC
  0
SECTION
  2
ENTITIES
  0
INSERT
  8
72OFGO2D01_GRAFIK
  2
OB2D__000000
 10
0.0
 20
0.0
 30
0.0
  0
INSERT
  8
72OFGO2D01_GRAFIK
  2
OB2D__000001
 10
0.0
 20
0.0
 30
0.0
  0
ENDSEC
  0
EOF
