  0
SECTION
  2
HEADER
  9
$ACADVER
  1
AC1009
  9
$INSBASE
 10
0.0
 20
0.0
 30
0.0
  9
$EXTMIN
 10
-5.03
 20
-5.03
 30
-1.03
  9
$EXTMAX
 10
5.03
 20
5
 30
5.03
  0
ENDSEC
  0
SECTION
  2
TABLES
  0
TABLE
  2
LTYPE
 70
     2
  0
LTYPE
  2
CONTINUOUS
 70
    64
  3
________
 72
    65
 73
     0
 40
0.0
  0
LTYPE
  2
DASHED
 70
     0
  3
__ __ __
 72
    65
 73
     2
 40
0.75
 49
0.5
 49
-0.25
  0
LTYPE
  2
DOT
 70
     0
  3
. . . .
 72
    65
 73
     2
 40
0.25
 49
0.0
 49
-0.25
  0
LTYPE
  2
DASHDOT
 70
     0
  3
_ . _ .
 72
    65
 73
     4
 40
1.0
 49
0.5
 49
-0.25
 49
-0.0
 49
-0.25
  0
LTYPE
  2
DASHDOUBLEDOT
 70
     0
  3
__..__..
 72
    65
 73
     6
 40
1.25
 49
0.5
 49
-0.25
 49
-0.0
 49
-0.25
 49
-0.0
 49
-0.25
  0
LTYPE
  2
DASHTRIPLEDOT
 70
     0
  3
__...__...__
 72
    65
 73
     8
 40
1.5
 49
0.5
 49
-0.25
 49
-0.0
 49
-0.25
 49
-0.0
 49
-0.25
 49
-0.0
 49
-0.25
  0
ENDTAB
  0
TABLE
  2
LAYER
 70
    14
  0
LAYER
  2
0
 70
    64
 62
     7
  6
CONTINUOUS
  0
LAYER
  2
CEILING
 70
    64
 62
     7
  6
CONTINUOUS
  0
LAYER
  2
FLOORBLOCK
 70
    64
 62
     7
  6
CONTINUOUS
  0
LAYER
  2
FLOORHATCHING
 70
    64
 62
     7
  6
CONTINUOUS
  0
LAYER
  2
SNAP
 70
    64
 62
     7
  6
CONTINUOUS
  0
LAYER
  2
ATTACHPOINT
 70
    64
 62
     7
  6
CONTINUOUS
  0
LAYER
  2
72_ARTEK_AKFURNITURE_D2_CH_FRA
 70
    64
 62
18
  6
CONTINUOUS
  0
LAYER
  2
72_ARTEK_AKFURNITURE_D2SNAP
 70
    64
 62
1
  6
CONTINUOUS
  0
LAYER
  2
72_ARTEK_AKFURNITURE_D2_CH_SEA
 70
    64
 62
18
  6
CONTINUOUS
  0
LAYER
  2
72_ARTEK_AKFURNITURE_D2_CH_ARM
 70
    64
 62
18
  6
CONTINUOUS
  0
LAYER
  2
72_ARTEK_AKFURNITURE_D2_CH_BAC
 70
    64
 62
18
  6
CONTINUOUS
  0
LAYER
  2
72_ARTEK_AKFURNITURE_D2_CH_FOO
 70
    64
 62
18
  6
CONTINUOUS
  0
LAYER
  2
72_ARTEK_AKFURNITURE_D2_CH_000
 70
    64
 62
8
  6
CONTINUOUS
  0
LAYER
  2
72OFGO2D01_GRAFIK
 70
    64
 62
     1
  6
CONTINUOUS
  0
ENDTAB
  0
TABLE
  2
STYLE
 70
     1
  0
STYLE
  2
STANDARD
 70
     0
 40
0.0
 41
1.0
 50
0.0
 71
     0
 42
0.2
  3
txt
  4

  0
ENDTAB
  0
TABLE
  2
APPID
 70
    64
  0
APPID
  2
ACAD
 70
    64
  0
APPID
  2
OFML_10
 70
    64
  0
ENDTAB
  0
ENDSEC
  0
SECTION
  2
BLOCKS
  0
BLOCK
  8
0
  2
OB2D__000000
 70
    64
 10
0.0
 20
0.0
 30
0.0
  3
OB2D__000000
  0
POLYLINE
  8
72_ARTEK_AKFURNITURE_D2_CH_BAC
 66
     1
 70
     0
 10
0.0
 20
0.0
 30
0.0
  0
VERTEX
  8
72_ARTEK_AKFURNITURE_D2_CH_BAC
 10
0.41839
 20
0.118529
 30
0
  0
VERTEX
  8
72_ARTEK_AKFURNITURE_D2_CH_BAC
 10
0.434154
 20
0.118476
 30
0
  0
VERTEX
  8
72_ARTEK_AKFURNITURE_D2_CH_BAC
 10
0.446395
 20
0.118421
 30
0
  0
VERTEX
  8
72_ARTEK_AKFURNITURE_D2_CH_BAC
 10
0.458186
 20
0.118375
 30
0
  0
VERTEX
  8
72_ARTEK_AKFURNITURE_D2_CH_BAC
 10
0.465306
 20
0.118357
 30
0
  0
VERTEX
  8
72_ARTEK_AKFURNITURE_D2_CH_BAC
 10
0.474433
 20
0.118345
 30
0
  0
VERTEX
  8
72_ARTEK_AKFURNITURE_D2_CH_BAC
 10
0.495957
 20
0.118337
 30
0
  0
VERTEX
  8
72_ARTEK_AKFURNITURE_D2_CH_BAC
 10
0.504403
 20
0.11834
 30
0
  0
VERTEX
  8
72_ARTEK_AKFURNITURE_D2_CH_BAC
 10
0.510998
 20
0.118349
 30
0
  0
VERTEX
  8
72_ARTEK_AKFURNITURE_D2_CH_BAC
 10
0.519699
 20
0.118347
 30
0
  0
VERTEX
  8
72_ARTEK_AKFURNITURE_D2_CH_BAC
 10
0.532241
 20
0.11833
 30
0
  0
VERTEX
  8
72_ARTEK_AKFURNITURE_D2_CH_BAC
 10
0.548267
 20
0.118298
 30
0
  0
VERTEX
  8
72_ARTEK_AKFURNITURE_D2_CH_BAC
 10
0.555549
 20
0.118285
 30
0
  0
VERTEX
  8
72_ARTEK_AKFURNITURE_D2_CH_BAC
 10
0.561601
 20
0.118278
 30
0
  0
VERTEX
  8
72_ARTEK_AKFURNITURE_D2_CH_BAC
 10
0.566421
 20
0.118276
 30
0
  0
VERTEX
  8
72_ARTEK_AKFURNITURE_D2_CH_BAC
 10
0.57001
 20
0.11828
 30
0
  0
VERTEX
  8
72_ARTEK_AKFURNITURE_D2_CH_BAC
 10
0.573876
 20
0.118305
 30
0
  0
VERTEX
  8
72_ARTEK_AKFURNITURE_D2_CH_BAC
 10
0.577912
 20
0.11837
 30
0
  0
VERTEX
  8
72_ARTEK_AKFURNITURE_D2_CH_BAC
 10
0.583517
 20
0.118478
 30
0
  0
VERTEX
  8
72_ARTEK_AKFURNITURE_D2_CH_BAC
 10
0.590427
 20
0.118626
 30
0
  0
VERTEX
  8
72_ARTEK_AKFURNITURE_D2_CH_BAC
 10
0.596209
 20
0.118767
 30
0
  0
VERTEX
  8
72_ARTEK_AKFURNITURE_D2_CH_BAC
 10
0.600271
 20
0.118889
 30
0
  0
VERTEX
  8
72_ARTEK_AKFURNITURE_D2_CH_BAC
 10
0.602789
 20
0.118998
 30
0
  0
VERTEX
  8
72_ARTEK_AKFURNITURE_D2_CH_BAC
 10
0.611388
 20
0.119573
 30
0
  0
VERTEX
  8
72_ARTEK_AKFURNITURE_D2_CH_BAC
 10
0.615675
 20
0.119931
 30
0
  0
VERTEX
  8
72_ARTEK_AKFURNITURE_D2_CH_BAC
 10
0.619475
 20
0.120457
 30
0
  0
VERTEX
  8
72_ARTEK_AKFURNITURE_D2_CH_BAC
 10
0.624974
 20
0.121337
 30
0
  0
VERTEX
  8
72_ARTEK_AKFURNITURE_D2_CH_BAC
 10
0.63144
 20
0.122443
 30
0
  0
VERTEX
  8
72_ARTEK_AKFURNITURE_D2_CH_BAC
 10
0.636169
 20
0.123305
 30
0
  0
VERTEX
  8
72_ARTEK_AKFURNITURE_D2_CH_BAC
 10
0.638908
 20
0.12388
 30
0
  0
VERTEX
  8
72_ARTEK_AKFURNITURE_D2_CH_BAC
 10
0.640215
 20
0.124264
 30
0
  0
VERTEX
  8
72_ARTEK_AKFURNITURE_D2_CH_BAC
 10
0.647601
 20
0.126587
 30
0
  0
VERTEX
  8
72_ARTEK_AKFURNITURE_D2_CH_BAC
 10
0.651415
 20
0.128016
 30
0
  0
VERTEX
  8
72_ARTEK_AKFURNITURE_D2_CH_BAC
 10
0.653122
 20
0.128834
 30
0
  0
VERTEX
  8
72_ARTEK_AKFURNITURE_D2_CH_BAC
 10
0.658363
 20
0.132062
 30
0
  0
VERTEX
  8
72_ARTEK_AKFURNITURE_D2_CH_BAC
 10
0.662511
 20
0.135831
 30
0
  0
VERTEX
  8
72_ARTEK_AKFURNITURE_D2_CH_BAC
 10
0.663259
 20
0.140406
 30
0
  0
VERTEX
  8
72_ARTEK_AKFURNITURE_D2_CH_BAC
 10
0.663426
 20
0.149707
 30
0
  0
VERTEX
  8
72_ARTEK_AKFURNITURE_D2_CH_BAC
 10
0.663747
 20
0.167505
 30
0
  0
VERTEX
  8
72_ARTEK_AKFURNITURE_D2_CH_BAC
 10
0.664329
 20
0.199886
 30
0
  0
VERTEX
  8
72_ARTEK_AKFURNITURE_D2_CH_BAC
 10
0.664833
 20
0.227979
 30
0
  0
VERTEX
  8
72_ARTEK_AKFURNITURE_D2_CH_BAC
 10
0.665258
 20
0.251784
 30
0
  0
VERTEX
  8
72_ARTEK_AKFURNITURE_D2_CH_BAC
 10
0.665604
 20
0.271302
 30
0
  0
VERTEX
  8
72_ARTEK_AKFURNITURE_D2_CH_BAC
 10
0.665872
 20
0.286533
 30
0
  0
VERTEX
  8
72_ARTEK_AKFURNITURE_D2_CH_BAC
 10
0.666061
 20
0.297476
 30
0
  0
VERTEX
  8
72_ARTEK_AKFURNITURE_D2_CH_BAC
 10
0.666171
 20
0.304131
 30
0
  0
VERTEX
  8
72_ARTEK_AKFURNITURE_D2_CH_BAC
 10
0.666203
 20
0.306514
 30
0
  0
VERTEX
  8
72_ARTEK_AKFURNITURE_D2_CH_BAC
 10
0.666201
 20
0.307666
 30
0
  0
VERTEX
  8
72_ARTEK_AKFURNITURE_D2_CH_BAC
 10
0.666204
 20
0.309851
 30
0
  0
VERTEX
  8
72_ARTEK_AKFURNITURE_D2_CH_BAC
 10
0.666212
 20
0.311967
 30
0
  0
VERTEX
  8
72_ARTEK_AKFURNITURE_D2_CH_BAC
 10
0.66618
 20
0.315579
 30
0
  0
VERTEX
  8
72_ARTEK_AKFURNITURE_D2_CH_BAC
 10
0.665977
 20
0.327503
 30
0
  0
VERTEX
  8
72_ARTEK_AKFURNITURE_D2_CH_BAC
 10
0.665517
 20
0.347413
 30
0
  0
VERTEX
  8
72_ARTEK_AKFURNITURE_D2_CH_BAC
 10
0.665455
 20
0.350618
 30
0
  0
VERTEX
  8
72_ARTEK_AKFURNITURE_D2_CH_BAC
 10
0.66542
 20
0.352422
 30
0
  0
VERTEX
  8
72_ARTEK_AKFURNITURE_D2_CH_BAC
 10
0.665303
 20
0.357171
 30
0
  0
VERTEX
  8
72_ARTEK_AKFURNITURE_D2_CH_BAC
 10
0.66518
 20
0.361226
 30
0
  0
VERTEX
  8
72_ARTEK_AKFURNITURE_D2_CH_BAC
 10
0.665104
 20
0.362694
 30
0
  0
VERTEX
  8
72_ARTEK_AKFURNITURE_D2_CH_BAC
 10
0.664961
 20
0.364418
 30
0
  0
VERTEX
  8
72_ARTEK_AKFURNITURE_D2_CH_BAC
 10
0.664157
 20
0.368869
 30
0
  0
VERTEX
  8
72_ARTEK_AKFURNITURE_D2_CH_BAC
 10
0.662641
 20
0.372829
 30
0
  0
VERTEX
  8
72_ARTEK_AKFURNITURE_D2_CH_BAC
 10
0.659618
 20
0.375378
 30
0
  0
VERTEX
  8
72_ARTEK_AKFURNITURE_D2_CH_BAC
 10
0.656482
 20
0.379383
 30
0
  0
VERTEX
  8
72_ARTEK_AKFURNITURE_D2_CH_BAC
 10
0.652778
 20
0.380953
 30
0
  0
VERTEX
  8
72_ARTEK_AKFURNITURE_D2_CH_BAC
 10
0.646786
 20
0.381864
 30
0
  0
VERTEX
  8
72_ARTEK_AKFURNITURE_D2_CH_BAC
 10
0.642298
 20
0.38206
 30
0
  0
VERTEX
  8
72_ARTEK_AKFURNITURE_D2_CH_BAC
 10
0.636568
 20
0.381991
 30
0
  0
VERTEX
  8
72_ARTEK_AKFURNITURE_D2_CH_BAC
 10
0.633145
 20
0.381822
 30
0
  0
VERTEX
  8
72_ARTEK_AKFURNITURE_D2_CH_BAC
 10
0.627158
 20
0.381415
 30
0
  0
VERTEX
  8
72_ARTEK_AKFURNITURE_D2_CH_BAC
 10
0.620415
 20
0.380947
 30
0
  0
VERTEX
  8
72_ARTEK_AKFURNITURE_D2_CH_BAC
 10
0.615629
 20
0.380637
 30
0
  0
VERTEX
  8
72_ARTEK_AKFURNITURE_D2_CH_BAC
 10
0.605015
 20
0.380098
 30
0
  0
VERTEX
  8
72_ARTEK_AKFURNITURE_D2_CH_BAC
 10
0.593104
 20
0.379693
 30
0
  0
VERTEX
  8
72_ARTEK_AKFURNITURE_D2_CH_BAC
 10
0.586479
 20
0.379565
 30
0
  0
VERTEX
  8
72_ARTEK_AKFURNITURE_D2_CH_BAC
 10
0.581654
 20
0.379505
 30
0
  0
VERTEX
  8
72_ARTEK_AKFURNITURE_D2_CH_BAC
 10
0.575125
 20
0.379436
 30
0
  0
VERTEX
  8
72_ARTEK_AKFURNITURE_D2_CH_BAC
 10
0.570099
 20
0.379399
 30
0
  0
VERTEX
  8
72_ARTEK_AKFURNITURE_D2_CH_BAC
 10
0.56332
 20
0.379361
 30
0
  0
VERTEX
  8
72_ARTEK_AKFURNITURE_D2_CH_BAC
 10
0.554787
 20
0.379323
 30
0
  0
VERTEX
  8
72_ARTEK_AKFURNITURE_D2_CH_BAC
 10
0.544501
 20
0.379283
 30
0
  0
VERTEX
  8
72_ARTEK_AKFURNITURE_D2_CH_BAC
 10
0.533893
 20
0.379248
 30
0
  0
VERTEX
  8
72_ARTEK_AKFURNITURE_D2_CH_BAC
 10
0.524933
 20
0.379221
 30
0
  0
VERTEX
  8
72_ARTEK_AKFURNITURE_D2_CH_BAC
 10
0.517633
 20
0.379204
 30
0
  0
VERTEX
  8
72_ARTEK_AKFURNITURE_D2_CH_BAC
 10
0.511992
 20
0.379197
 30
0
  0
VERTEX
  8
72_ARTEK_AKFURNITURE_D2_CH_BAC
 10
0.387475
 20
0.379297
 30
0
  0
VERTEX
  8
72_ARTEK_AKFURNITURE_D2_CH_BAC
 10
0.262844
 20
0.379197
 30
0
  0
VERTEX
  8
72_ARTEK_AKFURNITURE_D2_CH_BAC
 10
0.257012
 20
0.379206
 30
0
  0
VERTEX
  8
72_ARTEK_AKFURNITURE_D2_CH_BAC
 10
0.249521
 20
0.379224
 30
0
  0
VERTEX
  8
72_ARTEK_AKFURNITURE_D2_CH_BAC
 10
0.24037
 20
0.379251
 30
0
  0
VERTEX
  8
72_ARTEK_AKFURNITURE_D2_CH_BAC
 10
0.229627
 20
0.379288
 30
0
  0
VERTEX
  8
72_ARTEK_AKFURNITURE_D2_CH_BAC
 10
0.219543
 20
0.379327
 30
0
  0
VERTEX
  8
72_ARTEK_AKFURNITURE_D2_CH_BAC
 10
0.211212
 20
0.379366
 30
0
  0
VERTEX
  8
72_ARTEK_AKFURNITURE_D2_CH_BAC
 10
0.204634
 20
0.379403
 30
0
  0
VERTEX
  8
72_ARTEK_AKFURNITURE_D2_CH_BAC
 10
0.19981
 20
0.37944
 30
0
  0
VERTEX
  8
72_ARTEK_AKFURNITURE_D2_CH_BAC
 10
0.193426
 20
0.379509
 30
0
  0
VERTEX
  8
72_ARTEK_AKFURNITURE_D2_CH_BAC
 10
0.188692
 20
0.379568
 30
0
  0
VERTEX
  8
72_ARTEK_AKFURNITURE_D2_CH_BAC
 10
0.182118
 20
0.379698
 30
0
  0
VERTEX
  8
72_ARTEK_AKFURNITURE_D2_CH_BAC
 10
0.170223
 20
0.380105
 30
0
  0
VERTEX
  8
72_ARTEK_AKFURNITURE_D2_CH_BAC
 10
0.159626
 20
0.380645
 30
0
  0
VERTEX
  8
72_ARTEK_AKFURNITURE_D2_CH_BAC
 10
0.154837
 20
0.380958
 30
0
  0
VERTEX
  8
72_ARTEK_AKFURNITURE_D2_CH_BAC
 10
0.148014
 20
0.381431
 30
0
  0
VERTEX
  8
72_ARTEK_AKFURNITURE_D2_CH_BAC
 10
0.142142
 20
0.381829
 30
0
  0
VERTEX
  8
72_ARTEK_AKFURNITURE_D2_CH_BAC
 10
0.138744
 20
0.381993
 30
0
  0
VERTEX
  8
72_ARTEK_AKFURNITURE_D2_CH_BAC
 10
0.133031
 20
0.382059
 30
0
  0
VERTEX
  8
72_ARTEK_AKFURNITURE_D2_CH_BAC
 10
0.128556
 20
0.38186
 30
0
  0
VERTEX
  8
72_ARTEK_AKFURNITURE_D2_CH_BAC
 10
0.122587
 20
0.380945
 30
0
  0
VERTEX
  8
72_ARTEK_AKFURNITURE_D2_CH_BAC
 10
0.118897
 20
0.379369
 30
0
  0
VERTEX
  8
72_ARTEK_AKFURNITURE_D2_CH_BAC
 10
0.115747
 20
0.375362
 30
0
  0
VERTEX
  8
72_ARTEK_AKFURNITURE_D2_CH_BAC
 10
0.112746
 20
0.372805
 30
0
  0
VERTEX
  8
72_ARTEK_AKFURNITURE_D2_CH_BAC
 10
0.111235
 20
0.368836
 30
0
  0
VERTEX
  8
72_ARTEK_AKFURNITURE_D2_CH_BAC
 10
0.110436
 20
0.36439
 30
0
  0
VERTEX
  8
72_ARTEK_AKFURNITURE_D2_CH_BAC
 10
0.110294
 20
0.362665
 30
0
  0
VERTEX
  8
72_ARTEK_AKFURNITURE_D2_CH_BAC
 10
0.110218
 20
0.361163
 30
0
  0
VERTEX
  8
72_ARTEK_AKFURNITURE_D2_CH_BAC
 10
0.110092
 20
0.356998
 30
0
  0
VERTEX
  8
72_ARTEK_AKFURNITURE_D2_CH_BAC
 10
0.109978
 20
0.352329
 30
0
  0
VERTEX
  8
72_ARTEK_AKFURNITURE_D2_CH_BAC
 10
0.109942
 20
0.350475
 30
0
  0
VERTEX
  8
72_ARTEK_AKFURNITURE_D2_CH_BAC
 10
0.109878
 20
0.347183
 30
0
  0
VERTEX
  8
72_ARTEK_AKFURNITURE_D2_CH_BAC
 10
0.109416
 20
0.327165
 30
0
  0
VERTEX
  8
72_ARTEK_AKFURNITURE_D2_CH_BAC
 10
0.109216
 20
0.315316
 30
0
  0
VERTEX
  8
72_ARTEK_AKFURNITURE_D2_CH_BAC
 10
0.109188
 20
0.311822
 30
0
  0
VERTEX
  8
72_ARTEK_AKFURNITURE_D2_CH_BAC
 10
0.109196
 20
0.309729
 30
0
  0
VERTEX
  8
72_ARTEK_AKFURNITURE_D2_CH_BAC
 10
0.109198
 20
0.307535
 30
0
  0
VERTEX
  8
72_ARTEK_AKFURNITURE_D2_CH_BAC
 10
0.109198
 20
0.306334
 30
0
  0
VERTEX
  8
72_ARTEK_AKFURNITURE_D2_CH_BAC
 10
0.109247
 20
0.302981
 30
0
  0
VERTEX
  8
72_ARTEK_AKFURNITURE_D2_CH_BAC
 10
0.109376
 20
0.295339
 30
0
  0
VERTEX
  8
72_ARTEK_AKFURNITURE_D2_CH_BAC
 10
0.109583
 20
0.283411
 30
0
  0
VERTEX
  8
72_ARTEK_AKFURNITURE_D2_CH_BAC
 10
0.109868
 20
0.267195
 30
0
  0
VERTEX
  8
72_ARTEK_AKFURNITURE_D2_CH_BAC
 10
0.110233
 20
0.246691
 30
0
  0
VERTEX
  8
72_ARTEK_AKFURNITURE_D2_CH_BAC
 10
0.110676
 20
0.2219
 30
0
  0
VERTEX
  8
72_ARTEK_AKFURNITURE_D2_CH_BAC
 10
0.111198
 20
0.192821
 30
0
  0
VERTEX
  8
72_ARTEK_AKFURNITURE_D2_CH_BAC
 10
0.111798
 20
0.159454
 30
0
  0
VERTEX
  8
72_ARTEK_AKFURNITURE_D2_CH_BAC
 10
0.112128
 20
0.141163
 30
0
  0
VERTEX
  8
72_ARTEK_AKFURNITURE_D2_CH_BAC
 10
0.112322
 20
0.136462
 30
0
  0
VERTEX
  8
72_ARTEK_AKFURNITURE_D2_CH_BAC
 10
0.11658
 20
0.132415
 30
0
  0
VERTEX
  8
72_ARTEK_AKFURNITURE_D2_CH_BAC
 10
0.121815
 20
0.129072
 30
0
  0
VERTEX
  8
72_ARTEK_AKFURNITURE_D2_CH_BAC
 10
0.123425
 20
0.128259
 30
0
  0
VERTEX
  8
72_ARTEK_AKFURNITURE_D2_CH_BAC
 10
0.126098
 20
0.127194
 30
0
  0
VERTEX
  8
72_ARTEK_AKFURNITURE_D2_CH_BAC
 10
0.129014
 20
0.126184
 30
0
  0
VERTEX
  8
72_ARTEK_AKFURNITURE_D2_CH_BAC
 10
0.133098
 20
0.124906
 30
0
  0
VERTEX
  8
72_ARTEK_AKFURNITURE_D2_CH_BAC
 10
0.136075
 20
0.123992
 30
0
  0
VERTEX
  8
72_ARTEK_AKFURNITURE_D2_CH_BAC
 10
0.138244
 20
0.123499
 30
0
  0
VERTEX
  8
72_ARTEK_AKFURNITURE_D2_CH_BAC
 10
0.142404
 20
0.122719
 30
0
  0
VERTEX
  8
72_ARTEK_AKFURNITURE_D2_CH_BAC
 10
0.154525
 20
0.120673
 30
0
  0
VERTEX
  8
72_ARTEK_AKFURNITURE_D2_CH_BAC
 10
0.158811
 20
0.120045
 30
0
  0
VERTEX
  8
72_ARTEK_AKFURNITURE_D2_CH_BAC
 10
0.161416
 20
0.119767
 30
0
  0
VERTEX
  8
72_ARTEK_AKFURNITURE_D2_CH_BAC
 10
0.169759
 20
0.119158
 30
0
  0
VERTEX
  8
72_ARTEK_AKFURNITURE_D2_CH_BAC
 10
0.174283
 20
0.118921
 30
0
  0
VERTEX
  8
72_ARTEK_AKFURNITURE_D2_CH_BAC
 10
0.177853
 20
0.118803
 30
0
  0
VERTEX
  8
72_ARTEK_AKFURNITURE_D2_CH_BAC
 10
0.183143
 20
0.118668
 30
0
  0
VERTEX
  8
72_ARTEK_AKFURNITURE_D2_CH_BAC
 10
0.196044
 20
0.118396
 30
0
  0
VERTEX
  8
72_ARTEK_AKFURNITURE_D2_CH_BAC
 10
0.200529
 20
0.118319
 30
0
  0
VERTEX
  8
72_ARTEK_AKFURNITURE_D2_CH_BAC
 10
0.20389
 20
0.118284
 30
0
  0
VERTEX
  8
72_ARTEK_AKFURNITURE_D2_CH_BAC
 10
0.206774
 20
0.118278
 30
0
  0
VERTEX
  8
72_ARTEK_AKFURNITURE_D2_CH_BAC
 10
0.21089
 20
0.118276
 30
0
  0
VERTEX
  8
72_ARTEK_AKFURNITURE_D2_CH_BAC
 10
0.216236
 20
0.11828
 30
0
  0
VERTEX
  8
72_ARTEK_AKFURNITURE_D2_CH_BAC
 10
0.222814
 20
0.11829
 30
0
  0
VERTEX
  8
72_ARTEK_AKFURNITURE_D2_CH_BAC
 10
0.238862
 20
0.118322
 30
0
  0
VERTEX
  8
72_ARTEK_AKFURNITURE_D2_CH_BAC
 10
0.252504
 20
0.118344
 30
0
  0
VERTEX
  8
72_ARTEK_AKFURNITURE_D2_CH_BAC
 10
0.262304
 20
0.11835
 30
0
  0
VERTEX
  8
72_ARTEK_AKFURNITURE_D2_CH_BAC
 10
0.268949
 20
0.118342
 30
0
  0
VERTEX
  8
72_ARTEK_AKFURNITURE_D2_CH_BAC
 10
0.276821
 20
0.118337
 30
0
  0
VERTEX
  8
72_ARTEK_AKFURNITURE_D2_CH_BAC
 10
0.286697
 20
0.118337
 30
0
  0
VERTEX
  8
72_ARTEK_AKFURNITURE_D2_CH_BAC
 10
0.297985
 20
0.118342
 30
0
  0
VERTEX
  8
72_ARTEK_AKFURNITURE_D2_CH_BAC
 10
0.307687
 20
0.118353
 30
0
  0
VERTEX
  8
72_ARTEK_AKFURNITURE_D2_CH_BAC
 10
0.315382
 20
0.118369
 30
0
  0
VERTEX
  8
72_ARTEK_AKFURNITURE_D2_CH_BAC
 10
0.321429
 20
0.11839
 30
0
  0
VERTEX
  8
72_ARTEK_AKFURNITURE_D2_CH_BAC
 10
0.333211
 20
0.11844
 30
0
  0
VERTEX
  8
72_ARTEK_AKFURNITURE_D2_CH_BAC
 10
0.346403
 20
0.118496
 30
0
  0
VERTEX
  8
72_ARTEK_AKFURNITURE_D2_CH_BAC
 10
0.362854
 20
0.118545
 30
0
  0
VERTEX
  8
72_ARTEK_AKFURNITURE_D2_CH_BAC
 10
0.369319
 20
0.11856
 30
0
  0
VERTEX
  8
72_ARTEK_AKFURNITURE_D2_CH_BAC
 10
0.373773
 20
0.118566
 30
0
  0
VERTEX
  8
72_ARTEK_AKFURNITURE_D2_CH_BAC
 10
0.385778
 20
0.118569
 30
0
  0
VERTEX
  8
72_ARTEK_AKFURNITURE_D2_CH_BAC
 10
0.397731
 20
0.118567
 30
0
  0
VERTEX
  8
72_ARTEK_AKFURNITURE_D2_CH_BAC
 10
0.404601
 20
0.118562
 30
0
  0
VERTEX
  8
72_ARTEK_AKFURNITURE_D2_CH_BAC
 10
0.41049
 20
0.11855
 30
0
  0
VERTEX
  8
72_ARTEK_AKFURNITURE_D2_CH_BAC
 10
0.41839
 20
0.118529
 30
0
  0
SEQEND
  0
POLYLINE
  8
72_ARTEK_AKFURNITURE_D2SNAP
 66
     1
 70
     0
 10
0.0
 20
0.0
 30
0.0
  0
VERTEX
  8
72_ARTEK_AKFURNITURE_D2SNAP
 10
0.4002
 20
-0
 30
0
  0
VERTEX
  8
72_ARTEK_AKFURNITURE_D2SNAP
 10
0.39996
 20
0.00243863
 30
0
  0
VERTEX
  8
72_ARTEK_AKFURNITURE_D2SNAP
 10
0.399248
 20
0.00478354
 30
0
  0
VERTEX
  8
72_ARTEK_AKFURNITURE_D2SNAP
 10
0.398093
 20
0.00694463
 30
0
  0
VERTEX
  8
72_ARTEK_AKFURNITURE_D2SNAP
 10
0.396539
 20
0.00883883
 30
0
  0
VERTEX
  8
72_ARTEK_AKFURNITURE_D2SNAP
 10
0.394645
 20
0.0103934
 30
0
  0
VERTEX
  8
72_ARTEK_AKFURNITURE_D2SNAP
 10
0.392484
 20
0.0115485
 30
0
  0
VERTEX
  8
72_ARTEK_AKFURNITURE_D2SNAP
 10
0.390139
 20
0.0122598
 30
0
  0
VERTEX
  8
72_ARTEK_AKFURNITURE_D2SNAP
 10
0.3877
 20
0.0125
 30
0
  0
VERTEX
  8
72_ARTEK_AKFURNITURE_D2SNAP
 10
0.385261
 20
0.0122598
 30
0
  0
VERTEX
  8
72_ARTEK_AKFURNITURE_D2SNAP
 10
0.382916
 20
0.0115485
 30
0
  0
VERTEX
  8
72_ARTEK_AKFURNITURE_D2SNAP
 10
0.380755
 20
0.0103934
 30
0
  0
VERTEX
  8
72_ARTEK_AKFURNITURE_D2SNAP
 10
0.378861
 20
0.00883883
 30
0
  0
VERTEX
  8
72_ARTEK_AKFURNITURE_D2SNAP
 10
0.377307
 20
0.00694463
 30
0
  0
VERTEX
  8
72_ARTEK_AKFURNITURE_D2SNAP
 10
0.376152
 20
0.00478354
 30
0
  0
VERTEX
  8
72_ARTEK_AKFURNITURE_D2SNAP
 10
0.37544
 20
0.00243863
 30
0
  0
VERTEX
  8
72_ARTEK_AKFURNITURE_D2SNAP
 10
0.3752
 20
3.15316e-018
 30
0
  0
VERTEX
  8
72_ARTEK_AKFURNITURE_D2SNAP
 10
0.37544
 20
-0.00243863
 30
0
  0
VERTEX
  8
72_ARTEK_AKFURNITURE_D2SNAP
 10
0.376152
 20
-0.00478354
 30
0
  0
VERTEX
  8
72_ARTEK_AKFURNITURE_D2SNAP
 10
0.377307
 20
-0.00694463
 30
0
  0
VERTEX
  8
72_ARTEK_AKFURNITURE_D2SNAP
 10
0.378861
 20
-0.00883883
 30
0
  0
VERTEX
  8
72_ARTEK_AKFURNITURE_D2SNAP
 10
0.380755
 20
-0.0103934
 30
0
  0
VERTEX
  8
72_ARTEK_AKFURNITURE_D2SNAP
 10
0.382916
 20
-0.0115485
 30
0
  0
VERTEX
  8
72_ARTEK_AKFURNITURE_D2SNAP
 10
0.385261
 20
-0.0122598
 30
0
  0
VERTEX
  8
72_ARTEK_AKFURNITURE_D2SNAP
 10
0.3877
 20
-0.0125
 30
0
  0
VERTEX
  8
72_ARTEK_AKFURNITURE_D2SNAP
 10
0.390139
 20
-0.0122598
 30
0
  0
VERTEX
  8
72_ARTEK_AKFURNITURE_D2SNAP
 10
0.392484
 20
-0.0115485
 30
0
  0
VERTEX
  8
72_ARTEK_AKFURNITURE_D2SNAP
 10
0.394645
 20
-0.0103934
 30
0
  0
VERTEX
  8
72_ARTEK_AKFURNITURE_D2SNAP
 10
0.396539
 20
-0.00883883
 30
0
  0
VERTEX
  8
72_ARTEK_AKFURNITURE_D2SNAP
 10
0.398093
 20
-0.00694463
 30
0
  0
VERTEX
  8
72_ARTEK_AKFURNITURE_D2SNAP
 10
0.399248
 20
-0.00478354
 30
0
  0
VERTEX
  8
72_ARTEK_AKFURNITURE_D2SNAP
 10
0.39996
 20
-0.00243863
 30
0
  0
VERTEX
  8
72_ARTEK_AKFURNITURE_D2SNAP
 10
0.4002
 20
-0
 30
0
  0
SEQEND
  0
POLYLINE
  8
72_ARTEK_AKFURNITURE_D2SNAP
 66
     1
 70
     0
 10
0.0
 20
0.0
 30
0.0
  0
VERTEX
  8
72_ARTEK_AKFURNITURE_D2SNAP
 10
0.370022
 20
-0.0176777
 30
0
  0
VERTEX
  8
72_ARTEK_AKFURNITURE_D2SNAP
 10
0.405378
 20
0.0176777
 30
0
  0
SEQEND
  0
POLYLINE
  8
72_ARTEK_AKFURNITURE_D2SNAP
 66
     1
 70
     0
 10
0.0
 20
0.0
 30
0.0
  0
VERTEX
  8
72_ARTEK_AKFURNITURE_D2SNAP
 10
0.370022
 20
0.0176777
 30
0
  0
VERTEX
  8
72_ARTEK_AKFURNITURE_D2SNAP
 10
0.405378
 20
-0.0176777
 30
0
  0
SEQEND
  0
POLYLINE
  8
72_ARTEK_AKFURNITURE_D2_CH_FRA
 66
     1
 70
     0
 10
0.0
 20
0.0
 30
0.0
  0
VERTEX
  8
72_ARTEK_AKFURNITURE_D2_CH_FRA
 10
0.666706
 20
0.305754
 30
0
  0
VERTEX
  8
72_ARTEK_AKFURNITURE_D2_CH_FRA
 10
0.666706
 20
0.372854
 30
0
  0
VERTEX
  8
72_ARTEK_AKFURNITURE_D2_CH_FRA
 10
0.666706
 20
0.372854
 30
0
  0
VERTEX
  8
72_ARTEK_AKFURNITURE_D2_CH_FRA
 10
0.666766
 20
0.373549
 30
0
  0
VERTEX
  8
72_ARTEK_AKFURNITURE_D2_CH_FRA
 10
0.666947
 20
0.374222
 30
0
  0
VERTEX
  8
72_ARTEK_AKFURNITURE_D2_CH_FRA
 10
0.667242
 20
0.374854
 30
0
  0
VERTEX
  8
72_ARTEK_AKFURNITURE_D2_CH_FRA
 10
0.667642
 20
0.375425
 30
0
  0
VERTEX
  8
72_ARTEK_AKFURNITURE_D2_CH_FRA
 10
0.668135
 20
0.375918
 30
0
  0
VERTEX
  8
72_ARTEK_AKFURNITURE_D2_CH_FRA
 10
0.668706
 20
0.376318
 30
0
  0
VERTEX
  8
72_ARTEK_AKFURNITURE_D2_CH_FRA
 10
0.669338
 20
0.376613
 30
0
  0
VERTEX
  8
72_ARTEK_AKFURNITURE_D2_CH_FRA
 10
0.670011
 20
0.376793
 30
0
  0
VERTEX
  8
72_ARTEK_AKFURNITURE_D2_CH_FRA
 10
0.670706
 20
0.376854
 30
0
  0
VERTEX
  8
72_ARTEK_AKFURNITURE_D2_CH_FRA
 10
0.771406
 20
0.376854
 30
0
  0
VERTEX
  8
72_ARTEK_AKFURNITURE_D2_CH_FRA
 10
0.771406
 20
0.376854
 30
0
  0
VERTEX
  8
72_ARTEK_AKFURNITURE_D2_CH_FRA
 10
0.7721
 20
0.376793
 30
0
  0
VERTEX
  8
72_ARTEK_AKFURNITURE_D2_CH_FRA
 10
0.772774
 20
0.376613
 30
0
  0
VERTEX
  8
72_ARTEK_AKFURNITURE_D2_CH_FRA
 10
0.773406
 20
0.376318
 30
0
  0
VERTEX
  8
72_ARTEK_AKFURNITURE_D2_CH_FRA
 10
0.773977
 20
0.375918
 30
0
  0
VERTEX
  8
72_ARTEK_AKFURNITURE_D2_CH_FRA
 10
0.77447
 20
0.375425
 30
0
  0
VERTEX
  8
72_ARTEK_AKFURNITURE_D2_CH_FRA
 10
0.77487
 20
0.374854
 30
0
  0
VERTEX
  8
72_ARTEK_AKFURNITURE_D2_CH_FRA
 10
0.775164
 20
0.374222
 30
0
  0
VERTEX
  8
72_ARTEK_AKFURNITURE_D2_CH_FRA
 10
0.775345
 20
0.373549
 30
0
  0
VERTEX
  8
72_ARTEK_AKFURNITURE_D2_CH_FRA
 10
0.775406
 20
0.372854
 30
0
  0
VERTEX
  8
72_ARTEK_AKFURNITURE_D2_CH_FRA
 10
0.775406
 20
0.305754
 30
0
  0
VERTEX
  8
72_ARTEK_AKFURNITURE_D2_CH_FRA
 10
0.775406
 20
0.305754
 30
0
  0
VERTEX
  8
72_ARTEK_AKFURNITURE_D2_CH_FRA
 10
0.775329
 20
0.306534
 30
0
  0
VERTEX
  8
72_ARTEK_AKFURNITURE_D2_CH_FRA
 10
0.775101
 20
0.307285
 30
0
  0
VERTEX
  8
72_ARTEK_AKFURNITURE_D2_CH_FRA
 10
0.774732
 20
0.307976
 30
0
  0
VERTEX
  8
72_ARTEK_AKFURNITURE_D2_CH_FRA
 10
0.774234
 20
0.308583
 30
0
  0
VERTEX
  8
72_ARTEK_AKFURNITURE_D2_CH_FRA
 10
0.773628
 20
0.30908
 30
0
  0
VERTEX
  8
72_ARTEK_AKFURNITURE_D2_CH_FRA
 10
0.772936
 20
0.30945
 30
0
  0
VERTEX
  8
72_ARTEK_AKFURNITURE_D2_CH_FRA
 10
0.772186
 20
0.309677
 30
0
  0
VERTEX
  8
72_ARTEK_AKFURNITURE_D2_CH_FRA
 10
0.771406
 20
0.309754
 30
0
  0
VERTEX
  8
72_ARTEK_AKFURNITURE_D2_CH_FRA
 10
0.670706
 20
0.309754
 30
0
  0
VERTEX
  8
72_ARTEK_AKFURNITURE_D2_CH_FRA
 10
0.670706
 20
0.309754
 30
0
  0
VERTEX
  8
72_ARTEK_AKFURNITURE_D2_CH_FRA
 10
0.670011
 20
0.309693
 30
0
  0
VERTEX
  8
72_ARTEK_AKFURNITURE_D2_CH_FRA
 10
0.669338
 20
0.309513
 30
0
  0
VERTEX
  8
72_ARTEK_AKFURNITURE_D2_CH_FRA
 10
0.668706
 20
0.309218
 30
0
  0
VERTEX
  8
72_ARTEK_AKFURNITURE_D2_CH_FRA
 10
0.668135
 20
0.308818
 30
0
  0
VERTEX
  8
72_ARTEK_AKFURNITURE_D2_CH_FRA
 10
0.667642
 20
0.308325
 30
0
  0
VERTEX
  8
72_ARTEK_AKFURNITURE_D2_CH_FRA
 10
0.667242
 20
0.307754
 30
0
  0
VERTEX
  8
72_ARTEK_AKFURNITURE_D2_CH_FRA
 10
0.666947
 20
0.307122
 30
0
  0
VERTEX
  8
72_ARTEK_AKFURNITURE_D2_CH_FRA
 10
0.666766
 20
0.306449
 30
0
  0
VERTEX
  8
72_ARTEK_AKFURNITURE_D2_CH_FRA
 10
0.666706
 20
0.305754
 30
0
  0
SEQEND
  0
POLYLINE
  8
72_ARTEK_AKFURNITURE_D2_CH_FRA
 66
     1
 70
     0
 10
0.0
 20
0.0
 30
0.0
  0
VERTEX
  8
72_ARTEK_AKFURNITURE_D2_CH_FRA
 10
0.104694
 20
0.376854
 30
0
  0
VERTEX
  8
72_ARTEK_AKFURNITURE_D2_CH_FRA
 10
0.105389
 20
0.376793
 30
0
  0
VERTEX
  8
72_ARTEK_AKFURNITURE_D2_CH_FRA
 10
0.106062
 20
0.376613
 30
0
  0
VERTEX
  8
72_ARTEK_AKFURNITURE_D2_CH_FRA
 10
0.106694
 20
0.376318
 30
0
  0
VERTEX
  8
72_ARTEK_AKFURNITURE_D2_CH_FRA
 10
0.107265
 20
0.375918
 30
0
  0
VERTEX
  8
72_ARTEK_AKFURNITURE_D2_CH_FRA
 10
0.107758
 20
0.375425
 30
0
  0
VERTEX
  8
72_ARTEK_AKFURNITURE_D2_CH_FRA
 10
0.108158
 20
0.374854
 30
0
  0
VERTEX
  8
72_ARTEK_AKFURNITURE_D2_CH_FRA
 10
0.108453
 20
0.374222
 30
0
  0
VERTEX
  8
72_ARTEK_AKFURNITURE_D2_CH_FRA
 10
0.108634
 20
0.373549
 30
0
  0
VERTEX
  8
72_ARTEK_AKFURNITURE_D2_CH_FRA
 10
0.108694
 20
0.372854
 30
0
  0
VERTEX
  8
72_ARTEK_AKFURNITURE_D2_CH_FRA
 10
0.108694
 20
0.305754
 30
0
  0
VERTEX
  8
72_ARTEK_AKFURNITURE_D2_CH_FRA
 10
0.108694
 20
0.305754
 30
0
  0
VERTEX
  8
72_ARTEK_AKFURNITURE_D2_CH_FRA
 10
0.108634
 20
0.306449
 30
0
  0
VERTEX
  8
72_ARTEK_AKFURNITURE_D2_CH_FRA
 10
0.108453
 20
0.307122
 30
0
  0
VERTEX
  8
72_ARTEK_AKFURNITURE_D2_CH_FRA
 10
0.108158
 20
0.307754
 30
0
  0
VERTEX
  8
72_ARTEK_AKFURNITURE_D2_CH_FRA
 10
0.107758
 20
0.308325
 30
0
  0
VERTEX
  8
72_ARTEK_AKFURNITURE_D2_CH_FRA
 10
0.107265
 20
0.308818
 30
0
  0
VERTEX
  8
72_ARTEK_AKFURNITURE_D2_CH_FRA
 10
0.106694
 20
0.309218
 30
0
  0
VERTEX
  8
72_ARTEK_AKFURNITURE_D2_CH_FRA
 10
0.106062
 20
0.309513
 30
0
  0
VERTEX
  8
72_ARTEK_AKFURNITURE_D2_CH_FRA
 10
0.105389
 20
0.309693
 30
0
  0
VERTEX
  8
72_ARTEK_AKFURNITURE_D2_CH_FRA
 10
0.104694
 20
0.309754
 30
0
  0
VERTEX
  8
72_ARTEK_AKFURNITURE_D2_CH_FRA
 10
0.0039943
 20
0.309754
 30
0
  0
VERTEX
  8
72_ARTEK_AKFURNITURE_D2_CH_FRA
 10
0.0039943
 20
0.309754
 30
0
  0
VERTEX
  8
72_ARTEK_AKFURNITURE_D2_CH_FRA
 10
0.00321394
 20
0.309677
 30
0
  0
VERTEX
  8
72_ARTEK_AKFURNITURE_D2_CH_FRA
 10
0.00246357
 20
0.30945
 30
0
  0
VERTEX
  8
72_ARTEK_AKFURNITURE_D2_CH_FRA
 10
0.00177202
 20
0.30908
 30
0
  0
VERTEX
  8
72_ARTEK_AKFURNITURE_D2_CH_FRA
 10
0.00116588
 20
0.308583
 30
0
  0
VERTEX
  8
72_ARTEK_AKFURNITURE_D2_CH_FRA
 10
0.000668425
 20
0.307976
 30
0
  0
VERTEX
  8
72_ARTEK_AKFURNITURE_D2_CH_FRA
 10
0.000298785
 20
0.307285
 30
0
  0
VERTEX
  8
72_ARTEK_AKFURNITURE_D2_CH_FRA
 10
7.11621e-005
 20
0.306534
 30
0
  0
VERTEX
  8
72_ARTEK_AKFURNITURE_D2_CH_FRA
 10
-5.69676e-006
 20
0.305754
 30
0
  0
VERTEX
  8
72_ARTEK_AKFURNITURE_D2_CH_FRA
 10
-5.69676e-006
 20
0.372854
 30
0
  0
VERTEX
  8
72_ARTEK_AKFURNITURE_D2_CH_FRA
 10
-5.69676e-006
 20
0.372854
 30
0
  0
VERTEX
  8
72_ARTEK_AKFURNITURE_D2_CH_FRA
 10
5.50722e-005
 20
0.373549
 30
0
  0
VERTEX
  8
72_ARTEK_AKFURNITURE_D2_CH_FRA
 10
0.000235533
 20
0.374222
 30
0
  0
VERTEX
  8
72_ARTEK_AKFURNITURE_D2_CH_FRA
 10
0.000530202
 20
0.374854
 30
0
  0
VERTEX
  8
72_ARTEK_AKFURNITURE_D2_CH_FRA
 10
0.000930125
 20
0.375425
 30
0
  0
VERTEX
  8
72_ARTEK_AKFURNITURE_D2_CH_FRA
 10
0.00142315
 20
0.375918
 30
0
  0
VERTEX
  8
72_ARTEK_AKFURNITURE_D2_CH_FRA
 10
0.0019943
 20
0.376318
 30
0
  0
VERTEX
  8
72_ARTEK_AKFURNITURE_D2_CH_FRA
 10
0.00262622
 20
0.376613
 30
0
  0
VERTEX
  8
72_ARTEK_AKFURNITURE_D2_CH_FRA
 10
0.00329971
 20
0.376793
 30
0
  0
VERTEX
  8
72_ARTEK_AKFURNITURE_D2_CH_FRA
 10
0.0039943
 20
0.376854
 30
0
  0
VERTEX
  8
72_ARTEK_AKFURNITURE_D2_CH_FRA
 10
0.104694
 20
0.376854
 30
0
  0
SEQEND
  0
POLYLINE
  8
72_ARTEK_AKFURNITURE_D2_CH_FRA
 66
     1
 70
     0
 10
0.0
 20
0.0
 30
0.0
  0
VERTEX
  8
72_ARTEK_AKFURNITURE_D2_CH_FRA
 10
0.0039943
 20
0.309754
 30
0
  0
VERTEX
  8
72_ARTEK_AKFURNITURE_D2_CH_FRA
 10
0.104694
 20
0.309754
 30
0
  0
VERTEX
  8
72_ARTEK_AKFURNITURE_D2_CH_FRA
 10
0.104694
 20
0.309754
 30
0
  0
VERTEX
  8
72_ARTEK_AKFURNITURE_D2_CH_FRA
 10
0.105389
 20
0.309693
 30
0
  0
VERTEX
  8
72_ARTEK_AKFURNITURE_D2_CH_FRA
 10
0.106062
 20
0.309513
 30
0
  0
VERTEX
  8
72_ARTEK_AKFURNITURE_D2_CH_FRA
 10
0.106694
 20
0.309218
 30
0
  0
VERTEX
  8
72_ARTEK_AKFURNITURE_D2_CH_FRA
 10
0.107265
 20
0.308818
 30
0
  0
VERTEX
  8
72_ARTEK_AKFURNITURE_D2_CH_FRA
 10
0.107758
 20
0.308325
 30
0
  0
VERTEX
  8
72_ARTEK_AKFURNITURE_D2_CH_FRA
 10
0.108158
 20
0.307754
 30
0
  0
VERTEX
  8
72_ARTEK_AKFURNITURE_D2_CH_FRA
 10
0.108453
 20
0.307122
 30
0
  0
VERTEX
  8
72_ARTEK_AKFURNITURE_D2_CH_FRA
 10
0.108634
 20
0.306449
 30
0
  0
VERTEX
  8
72_ARTEK_AKFURNITURE_D2_CH_FRA
 10
0.108694
 20
0.305754
 30
0
  0
VERTEX
  8
72_ARTEK_AKFURNITURE_D2_CH_FRA
 10
0.108694
 20
-0.395046
 30
0
  0
VERTEX
  8
72_ARTEK_AKFURNITURE_D2_CH_FRA
 10
0.108694
 20
-0.395046
 30
0
  0
VERTEX
  8
72_ARTEK_AKFURNITURE_D2_CH_FRA
 10
0.108634
 20
-0.395741
 30
0
  0
VERTEX
  8
72_ARTEK_AKFURNITURE_D2_CH_FRA
 10
0.108453
 20
-0.396414
 30
0
  0
VERTEX
  8
72_ARTEK_AKFURNITURE_D2_CH_FRA
 10
0.108158
 20
-0.397046
 30
0
  0
VERTEX
  8
72_ARTEK_AKFURNITURE_D2_CH_FRA
 10
0.107758
 20
-0.397617
 30
0
  0
VERTEX
  8
72_ARTEK_AKFURNITURE_D2_CH_FRA
 10
0.107265
 20
-0.39811
 30
0
  0
VERTEX
  8
72_ARTEK_AKFURNITURE_D2_CH_FRA
 10
0.106694
 20
-0.39851
 30
0
  0
VERTEX
  8
72_ARTEK_AKFURNITURE_D2_CH_FRA
 10
0.106062
 20
-0.398805
 30
0
  0
VERTEX
  8
72_ARTEK_AKFURNITURE_D2_CH_FRA
 10
0.105389
 20
-0.398985
 30
0
  0
VERTEX
  8
72_ARTEK_AKFURNITURE_D2_CH_FRA
 10
0.104694
 20
-0.399046
 30
0
  0
VERTEX
  8
72_ARTEK_AKFURNITURE_D2_CH_FRA
 10
0.0039943
 20
-0.399046
 30
0
  0
VERTEX
  8
72_ARTEK_AKFURNITURE_D2_CH_FRA
 10
0.0039943
 20
-0.399046
 30
0
  0
VERTEX
  8
72_ARTEK_AKFURNITURE_D2_CH_FRA
 10
0.00329971
 20
-0.398985
 30
0
  0
VERTEX
  8
72_ARTEK_AKFURNITURE_D2_CH_FRA
 10
0.00262622
 20
-0.398805
 30
0
  0
VERTEX
  8
72_ARTEK_AKFURNITURE_D2_CH_FRA
 10
0.0019943
 20
-0.39851
 30
0
  0
VERTEX
  8
72_ARTEK_AKFURNITURE_D2_CH_FRA
 10
0.00142315
 20
-0.39811
 30
0
  0
VERTEX
  8
72_ARTEK_AKFURNITURE_D2_CH_FRA
 10
0.000930125
 20
-0.397617
 30
0
  0
VERTEX
  8
72_ARTEK_AKFURNITURE_D2_CH_FRA
 10
0.000530202
 20
-0.397046
 30
0
  0
VERTEX
  8
72_ARTEK_AKFURNITURE_D2_CH_FRA
 10
0.000235533
 20
-0.396414
 30
0
  0
VERTEX
  8
72_ARTEK_AKFURNITURE_D2_CH_FRA
 10
5.50722e-005
 20
-0.395741
 30
0
  0
VERTEX
  8
72_ARTEK_AKFURNITURE_D2_CH_FRA
 10
-5.69676e-006
 20
-0.395046
 30
0
  0
VERTEX
  8
72_ARTEK_AKFURNITURE_D2_CH_FRA
 10
-5.69676e-006
 20
0.305754
 30
0
  0
VERTEX
  8
72_ARTEK_AKFURNITURE_D2_CH_FRA
 10
-5.69676e-006
 20
0.305754
 30
0
  0
VERTEX
  8
72_ARTEK_AKFURNITURE_D2_CH_FRA
 10
7.11621e-005
 20
0.306534
 30
0
  0
VERTEX
  8
72_ARTEK_AKFURNITURE_D2_CH_FRA
 10
0.000298785
 20
0.307285
 30
0
  0
VERTEX
  8
72_ARTEK_AKFURNITURE_D2_CH_FRA
 10
0.000668425
 20
0.307976
 30
0
  0
VERTEX
  8
72_ARTEK_AKFURNITURE_D2_CH_FRA
 10
0.00116588
 20
0.308583
 30
0
  0
VERTEX
  8
72_ARTEK_AKFURNITURE_D2_CH_FRA
 10
0.00177202
 20
0.30908
 30
0
  0
VERTEX
  8
72_ARTEK_AKFURNITURE_D2_CH_FRA
 10
0.00246357
 20
0.30945
 30
0
  0
VERTEX
  8
72_ARTEK_AKFURNITURE_D2_CH_FRA
 10
0.00321394
 20
0.309677
 30
0
  0
VERTEX
  8
72_ARTEK_AKFURNITURE_D2_CH_FRA
 10
0.0039943
 20
0.309754
 30
0
  0
SEQEND
  0
POLYLINE
  8
72_ARTEK_AKFURNITURE_D2_CH_FRA
 66
     1
 70
     0
 10
0.0
 20
0.0
 30
0.0
  0
VERTEX
  8
72_ARTEK_AKFURNITURE_D2_CH_FRA
 10
0.666706
 20
-0.395046
 30
0
  0
VERTEX
  8
72_ARTEK_AKFURNITURE_D2_CH_FRA
 10
0.666706
 20
0.305754
 30
0
  0
VERTEX
  8
72_ARTEK_AKFURNITURE_D2_CH_FRA
 10
0.666706
 20
0.305754
 30
0
  0
VERTEX
  8
72_ARTEK_AKFURNITURE_D2_CH_FRA
 10
0.666766
 20
0.306449
 30
0
  0
VERTEX
  8
72_ARTEK_AKFURNITURE_D2_CH_FRA
 10
0.666947
 20
0.307122
 30
0
  0
VERTEX
  8
72_ARTEK_AKFURNITURE_D2_CH_FRA
 10
0.667242
 20
0.307754
 30
0
  0
VERTEX
  8
72_ARTEK_AKFURNITURE_D2_CH_FRA
 10
0.667642
 20
0.308325
 30
0
  0
VERTEX
  8
72_ARTEK_AKFURNITURE_D2_CH_FRA
 10
0.668135
 20
0.308818
 30
0
  0
VERTEX
  8
72_ARTEK_AKFURNITURE_D2_CH_FRA
 10
0.668706
 20
0.309218
 30
0
  0
VERTEX
  8
72_ARTEK_AKFURNITURE_D2_CH_FRA
 10
0.669338
 20
0.309513
 30
0
  0
VERTEX
  8
72_ARTEK_AKFURNITURE_D2_CH_FRA
 10
0.670011
 20
0.309693
 30
0
  0
VERTEX
  8
72_ARTEK_AKFURNITURE_D2_CH_FRA
 10
0.670706
 20
0.309754
 30
0
  0
VERTEX
  8
72_ARTEK_AKFURNITURE_D2_CH_FRA
 10
0.771406
 20
0.309754
 30
0
  0
VERTEX
  8
72_ARTEK_AKFURNITURE_D2_CH_FRA
 10
0.771406
 20
0.309754
 30
0
  0
VERTEX
  8
72_ARTEK_AKFURNITURE_D2_CH_FRA
 10
0.7721
 20
0.309693
 30
0
  0
VERTEX
  8
72_ARTEK_AKFURNITURE_D2_CH_FRA
 10
0.772774
 20
0.309513
 30
0
  0
VERTEX
  8
72_ARTEK_AKFURNITURE_D2_CH_FRA
 10
0.773406
 20
0.309218
 30
0
  0
VERTEX
  8
72_ARTEK_AKFURNITURE_D2_CH_FRA
 10
0.773977
 20
0.308818
 30
0
  0
VERTEX
  8
72_ARTEK_AKFURNITURE_D2_CH_FRA
 10
0.77447
 20
0.308325
 30
0
  0
VERTEX
  8
72_ARTEK_AKFURNITURE_D2_CH_FRA
 10
0.77487
 20
0.307754
 30
0
  0
VERTEX
  8
72_ARTEK_AKFURNITURE_D2_CH_FRA
 10
0.775164
 20
0.307122
 30
0
  0
VERTEX
  8
72_ARTEK_AKFURNITURE_D2_CH_FRA
 10
0.775345
 20
0.306449
 30
0
  0
VERTEX
  8
72_ARTEK_AKFURNITURE_D2_CH_FRA
 10
0.775406
 20
0.305754
 30
0
  0
VERTEX
  8
72_ARTEK_AKFURNITURE_D2_CH_FRA
 10
0.775406
 20
-0.395046
 30
0
  0
VERTEX
  8
72_ARTEK_AKFURNITURE_D2_CH_FRA
 10
0.775406
 20
-0.395046
 30
0
  0
VERTEX
  8
72_ARTEK_AKFURNITURE_D2_CH_FRA
 10
0.775345
 20
-0.395741
 30
0
  0
VERTEX
  8
72_ARTEK_AKFURNITURE_D2_CH_FRA
 10
0.775164
 20
-0.396414
 30
0
  0
VERTEX
  8
72_ARTEK_AKFURNITURE_D2_CH_FRA
 10
0.77487
 20
-0.397046
 30
0
  0
VERTEX
  8
72_ARTEK_AKFURNITURE_D2_CH_FRA
 10
0.77447
 20
-0.397617
 30
0
  0
VERTEX
  8
72_ARTEK_AKFURNITURE_D2_CH_FRA
 10
0.773977
 20
-0.39811
 30
0
  0
VERTEX
  8
72_ARTEK_AKFURNITURE_D2_CH_FRA
 10
0.773406
 20
-0.39851
 30
0
  0
VERTEX
  8
72_ARTEK_AKFURNITURE_D2_CH_FRA
 10
0.772774
 20
-0.398805
 30
0
  0
VERTEX
  8
72_ARTEK_AKFURNITURE_D2_CH_FRA
 10
0.7721
 20
-0.398985
 30
0
  0
VERTEX
  8
72_ARTEK_AKFURNITURE_D2_CH_FRA
 10
0.771406
 20
-0.399046
 30
0
  0
VERTEX
  8
72_ARTEK_AKFURNITURE_D2_CH_FRA
 10
0.670706
 20
-0.399046
 30
0
  0
VERTEX
  8
72_ARTEK_AKFURNITURE_D2_CH_FRA
 10
0.670706
 20
-0.399046
 30
0
  0
VERTEX
  8
72_ARTEK_AKFURNITURE_D2_CH_FRA
 10
0.670011
 20
-0.398985
 30
0
  0
VERTEX
  8
72_ARTEK_AKFURNITURE_D2_CH_FRA
 10
0.669338
 20
-0.398805
 30
0
  0
VERTEX
  8
72_ARTEK_AKFURNITURE_D2_CH_FRA
 10
0.668706
 20
-0.39851
 30
0
  0
VERTEX
  8
72_ARTEK_AKFURNITURE_D2_CH_FRA
 10
0.668135
 20
-0.39811
 30
0
  0
VERTEX
  8
72_ARTEK_AKFURNITURE_D2_CH_FRA
 10
0.667642
 20
-0.397617
 30
0
  0
VERTEX
  8
72_ARTEK_AKFURNITURE_D2_CH_FRA
 10
0.667242
 20
-0.397046
 30
0
  0
VERTEX
  8
72_ARTEK_AKFURNITURE_D2_CH_FRA
 10
0.666947
 20
-0.396414
 30
0
  0
VERTEX
  8
72_ARTEK_AKFURNITURE_D2_CH_FRA
 10
0.666766
 20
-0.395741
 30
0
  0
VERTEX
  8
72_ARTEK_AKFURNITURE_D2_CH_FRA
 10
0.666706
 20
-0.395046
 30
0
  0
SEQEND
  0
POLYLINE
  8
72_ARTEK_AKFURNITURE_D2SNAP
 66
     1
 70
     0
 10
0.0
 20
0.0
 30
0.0
  0
VERTEX
  8
72_ARTEK_AKFURNITURE_D2SNAP
 10
0.4002
 20
-0
 30
0
  0
VERTEX
  8
72_ARTEK_AKFURNITURE_D2SNAP
 10
0.39996
 20
0.00243863
 30
0
  0
VERTEX
  8
72_ARTEK_AKFURNITURE_D2SNAP
 10
0.399248
 20
0.00478354
 30
0
  0
VERTEX
  8
72_ARTEK_AKFURNITURE_D2SNAP
 10
0.398093
 20
0.00694463
 30
0
  0
VERTEX
  8
72_ARTEK_AKFURNITURE_D2SNAP
 10
0.396539
 20
0.00883883
 30
0
  0
VERTEX
  8
72_ARTEK_AKFURNITURE_D2SNAP
 10
0.394645
 20
0.0103934
 30
0
  0
VERTEX
  8
72_ARTEK_AKFURNITURE_D2SNAP
 10
0.392484
 20
0.0115485
 30
0
  0
VERTEX
  8
72_ARTEK_AKFURNITURE_D2SNAP
 10
0.390139
 20
0.0122598
 30
0
  0
VERTEX
  8
72_ARTEK_AKFURNITURE_D2SNAP
 10
0.3877
 20
0.0125
 30
0
  0
VERTEX
  8
72_ARTEK_AKFURNITURE_D2SNAP
 10
0.385261
 20
0.0122598
 30
0
  0
VERTEX
  8
72_ARTEK_AKFURNITURE_D2SNAP
 10
0.382916
 20
0.0115485
 30
0
  0
VERTEX
  8
72_ARTEK_AKFURNITURE_D2SNAP
 10
0.380755
 20
0.0103934
 30
0
  0
VERTEX
  8
72_ARTEK_AKFURNITURE_D2SNAP
 10
0.378861
 20
0.00883883
 30
0
  0
VERTEX
  8
72_ARTEK_AKFURNITURE_D2SNAP
 10
0.377307
 20
0.00694463
 30
0
  0
VERTEX
  8
72_ARTEK_AKFURNITURE_D2SNAP
 10
0.376152
 20
0.00478354
 30
0
  0
VERTEX
  8
72_ARTEK_AKFURNITURE_D2SNAP
 10
0.37544
 20
0.00243863
 30
0
  0
VERTEX
  8
72_ARTEK_AKFURNITURE_D2SNAP
 10
0.3752
 20
3.15316e-018
 30
0
  0
VERTEX
  8
72_ARTEK_AKFURNITURE_D2SNAP
 10
0.37544
 20
-0.00243863
 30
0
  0
VERTEX
  8
72_ARTEK_AKFURNITURE_D2SNAP
 10
0.376152
 20
-0.00478354
 30
0
  0
VERTEX
  8
72_ARTEK_AKFURNITURE_D2SNAP
 10
0.377307
 20
-0.00694463
 30
0
  0
VERTEX
  8
72_ARTEK_AKFURNITURE_D2SNAP
 10
0.378861
 20
-0.00883883
 30
0
  0
VERTEX
  8
72_ARTEK_AKFURNITURE_D2SNAP
 10
0.380755
 20
-0.0103934
 30
0
  0
VERTEX
  8
72_ARTEK_AKFURNITURE_D2SNAP
 10
0.382916
 20
-0.0115485
 30
0
  0
VERTEX
  8
72_ARTEK_AKFURNITURE_D2SNAP
 10
0.385261
 20
-0.0122598
 30
0
  0
VERTEX
  8
72_ARTEK_AKFURNITURE_D2SNAP
 10
0.3877
 20
-0.0125
 30
0
  0
VERTEX
  8
72_ARTEK_AKFURNITURE_D2SNAP
 10
0.390139
 20
-0.0122598
 30
0
  0
VERTEX
  8
72_ARTEK_AKFURNITURE_D2SNAP
 10
0.392484
 20
-0.0115485
 30
0
  0
VERTEX
  8
72_ARTEK_AKFURNITURE_D2SNAP
 10
0.394645
 20
-0.0103934
 30
0
  0
VERTEX
  8
72_ARTEK_AKFURNITURE_D2SNAP
 10
0.396539
 20
-0.00883883
 30
0
  0
VERTEX
  8
72_ARTEK_AKFURNITURE_D2SNAP
 10
0.398093
 20
-0.00694463
 30
0
  0
VERTEX
  8
72_ARTEK_AKFURNITURE_D2SNAP
 10
0.399248
 20
-0.00478354
 30
0
  0
VERTEX
  8
72_ARTEK_AKFURNITURE_D2SNAP
 10
0.39996
 20
-0.00243863
 30
0
  0
VERTEX
  8
72_ARTEK_AKFURNITURE_D2SNAP
 10
0.4002
 20
-0
 30
0
  0
SEQEND
  0
POLYLINE
  8
72_ARTEK_AKFURNITURE_D2SNAP
 66
     1
 70
     0
 10
0.0
 20
0.0
 30
0.0
  0
VERTEX
  8
72_ARTEK_AKFURNITURE_D2SNAP
 10
0.370022
 20
-0.0176777
 30
0
  0
VERTEX
  8
72_ARTEK_AKFURNITURE_D2SNAP
 10
0.405378
 20
0.0176777
 30
0
  0
SEQEND
  0
POLYLINE
  8
72_ARTEK_AKFURNITURE_D2SNAP
 66
     1
 70
     0
 10
0.0
 20
0.0
 30
0.0
  0
VERTEX
  8
72_ARTEK_AKFURNITURE_D2SNAP
 10
0.370022
 20
0.0176777
 30
0
  0
VERTEX
  8
72_ARTEK_AKFURNITURE_D2SNAP
 10
0.405378
 20
-0.0176777
 30
0
  0
SEQEND
  0
POLYLINE
  8
72_ARTEK_AKFURNITURE_D2_CH_SEA
 66
     1
 70
     0
 10
0.0
 20
0.0
 30
0.0
  0
VERTEX
  8
72_ARTEK_AKFURNITURE_D2_CH_SEA
 10
0.457499
 20
0.118377
 30
0
  0
VERTEX
  8
72_ARTEK_AKFURNITURE_D2_CH_SEA
 10
0.432665
 20
0.118482
 30
0
  0
VERTEX
  8
72_ARTEK_AKFURNITURE_D2_CH_SEA
 10
0.416116
 20
0.118535
 30
0
  0
VERTEX
  8
72_ARTEK_AKFURNITURE_D2_CH_SEA
 10
0.408588
 20
0.118554
 30
0
  0
VERTEX
  8
72_ARTEK_AKFURNITURE_D2_CH_SEA
 10
0.403172
 20
0.118565
 30
0
  0
VERTEX
  8
72_ARTEK_AKFURNITURE_D2_CH_SEA
 10
0.378275
 20
0.118567
 30
0
  0
VERTEX
  8
72_ARTEK_AKFURNITURE_D2_CH_SEA
 10
0.371523
 20
0.118563
 30
0
  0
VERTEX
  8
72_ARTEK_AKFURNITURE_D2_CH_SEA
 10
0.365778
 20
0.118552
 30
0
  0
VERTEX
  8
72_ARTEK_AKFURNITURE_D2_CH_SEA
 10
0.357922
 20
0.118531
 30
0
  0
VERTEX
  8
72_ARTEK_AKFURNITURE_D2_CH_SEA
 10
0.341618
 20
0.118478
 30
0
  0
VERTEX
  8
72_ARTEK_AKFURNITURE_D2_CH_SEA
 10
0.329031
 20
0.118421
 30
0
  0
VERTEX
  8
72_ARTEK_AKFURNITURE_D2_CH_SEA
 10
0.316936
 20
0.118374
 30
0
  0
VERTEX
  8
72_ARTEK_AKFURNITURE_D2_CH_SEA
 10
0.309521
 20
0.118356
 30
0
  0
VERTEX
  8
72_ARTEK_AKFURNITURE_D2_CH_SEA
 10
0.299998
 20
0.118344
 30
0
  0
VERTEX
  8
72_ARTEK_AKFURNITURE_D2_CH_SEA
 10
0.2781
 20
0.118337
 30
0
  0
VERTEX
  8
72_ARTEK_AKFURNITURE_D2_CH_SEA
 10
0.269767
 20
0.118341
 30
0
  0
VERTEX
  8
72_ARTEK_AKFURNITURE_D2_CH_SEA
 10
0.263015
 20
0.11835
 30
0
  0
VERTEX
  8
72_ARTEK_AKFURNITURE_D2_CH_SEA
 10
0.253287
 20
0.118345
 30
0
  0
VERTEX
  8
72_ARTEK_AKFURNITURE_D2_CH_SEA
 10
0.239524
 20
0.118323
 30
0
  0
VERTEX
  8
72_ARTEK_AKFURNITURE_D2_CH_SEA
 10
0.223073
 20
0.11829
 30
0
  0
VERTEX
  8
72_ARTEK_AKFURNITURE_D2_CH_SEA
 10
0.216302
 20
0.11828
 30
0
  0
VERTEX
  8
72_ARTEK_AKFURNITURE_D2_CH_SEA
 10
0.210825
 20
0.118276
 30
0
  0
VERTEX
  8
72_ARTEK_AKFURNITURE_D2_CH_SEA
 10
0.206641
 20
0.118278
 30
0
  0
VERTEX
  8
72_ARTEK_AKFURNITURE_D2_CH_SEA
 10
0.203749
 20
0.118285
 30
0
  0
VERTEX
  8
72_ARTEK_AKFURNITURE_D2_CH_SEA
 10
0.200318
 20
0.118322
 30
0
  0
VERTEX
  8
72_ARTEK_AKFURNITURE_D2_CH_SEA
 10
0.195611
 20
0.118404
 30
0
  0
VERTEX
  8
72_ARTEK_AKFURNITURE_D2_CH_SEA
 10
0.189257
 20
0.118533
 30
0
  0
VERTEX
  8
72_ARTEK_AKFURNITURE_D2_CH_SEA
 10
0.182353
 20
0.118687
 30
0
  0
VERTEX
  8
72_ARTEK_AKFURNITURE_D2_CH_SEA
 10
0.177185
 20
0.118823
 30
0
  0
VERTEX
  8
72_ARTEK_AKFURNITURE_D2_CH_SEA
 10
0.171512
 20
0.119055
 30
0
  0
VERTEX
  8
72_ARTEK_AKFURNITURE_D2_CH_SEA
 10
0.16281
 20
0.119663
 30
0
  0
VERTEX
  8
72_ARTEK_AKFURNITURE_D2_CH_SEA
 10
0.160734
 20
0.119822
 30
0
  0
VERTEX
  8
72_ARTEK_AKFURNITURE_D2_CH_SEA
 10
0.157488
 20
0.120227
 30
0
  0
VERTEX
  8
72_ARTEK_AKFURNITURE_D2_CH_SEA
 10
0.152458
 20
0.121003
 30
0
  0
VERTEX
  8
72_ARTEK_AKFURNITURE_D2_CH_SEA
 10
0.145832
 20
0.122116
 30
0
  0
VERTEX
  8
72_ARTEK_AKFURNITURE_D2_CH_SEA
 10
0.140379
 20
0.123088
 30
0
  0
VERTEX
  8
72_ARTEK_AKFURNITURE_D2_CH_SEA
 10
0.137015
 20
0.123758
 30
0
  0
VERTEX
  8
72_ARTEK_AKFURNITURE_D2_CH_SEA
 10
0.133979
 20
0.124634
 30
0
  0
VERTEX
  8
72_ARTEK_AKFURNITURE_D2_CH_SEA
 10
0.126558
 20
0.127022
 30
0
  0
VERTEX
  8
72_ARTEK_AKFURNITURE_D2_CH_SEA
 10
0.123554
 20
0.1282
 30
0
  0
VERTEX
  8
72_ARTEK_AKFURNITURE_D2_CH_SEA
 10
0.117862
 20
0.131465
 30
0
  0
VERTEX
  8
72_ARTEK_AKFURNITURE_D2_CH_SEA
 10
0.1165
 20
0.13248
 30
0
  0
VERTEX
  8
72_ARTEK_AKFURNITURE_D2_CH_SEA
 10
0.114199
 20
0.134492
 30
0
  0
VERTEX
  8
72_ARTEK_AKFURNITURE_D2_CH_SEA
 10
0.11307
 20
0.135638
 30
0
  0
VERTEX
  8
72_ARTEK_AKFURNITURE_D2_CH_SEA
 10
0.112416
 20
0.135962
 30
0
  0
VERTEX
  8
72_ARTEK_AKFURNITURE_D2_CH_SEA
 10
0.112422
 20
0.133374
 30
0
  0
VERTEX
  8
72_ARTEK_AKFURNITURE_D2_CH_SEA
 10
0.112434
 20
0.12744
 30
0
  0
VERTEX
  8
72_ARTEK_AKFURNITURE_D2_CH_SEA
 10
0.112444
 20
0.122296
 30
0
  0
VERTEX
  8
72_ARTEK_AKFURNITURE_D2_CH_SEA
 10
0.112457
 20
0.115346
 30
0
  0
VERTEX
  8
72_ARTEK_AKFURNITURE_D2_CH_SEA
 10
0.112474
 20
0.106591
 30
0
  0
VERTEX
  8
72_ARTEK_AKFURNITURE_D2_CH_SEA
 10
0.112494
 20
0.096029
 30
0
  0
VERTEX
  8
72_ARTEK_AKFURNITURE_D2_CH_SEA
 10
0.112541
 20
0.0708157
 30
0
  0
VERTEX
  8
72_ARTEK_AKFURNITURE_D2_CH_SEA
 10
0.112581
 20
0.0484588
 30
0
  0
VERTEX
  8
72_ARTEK_AKFURNITURE_D2_CH_SEA
 10
0.112612
 20
0.0305566
 30
0
  0
VERTEX
  8
72_ARTEK_AKFURNITURE_D2_CH_SEA
 10
0.112635
 20
0.0166695
 30
0
  0
VERTEX
  8
72_ARTEK_AKFURNITURE_D2_CH_SEA
 10
0.112654
 20
0.0041154
 30
0
  0
VERTEX
  8
72_ARTEK_AKFURNITURE_D2_CH_SEA
 10
0.112688
 20
-0.0184738
 30
0
  0
VERTEX
  8
72_ARTEK_AKFURNITURE_D2_CH_SEA
 10
0.112703
 20
-0.0292841
 30
0
  0
VERTEX
  8
72_ARTEK_AKFURNITURE_D2_CH_SEA
 10
0.112707
 20
-0.0319866
 30
0
  0
VERTEX
  8
72_ARTEK_AKFURNITURE_D2_CH_SEA
 10
0.112708
 20
-0.0329666
 30
0
  0
VERTEX
  8
72_ARTEK_AKFURNITURE_D2_CH_SEA
 10
0.112711
 20
-0.0351177
 30
0
  0
VERTEX
  8
72_ARTEK_AKFURNITURE_D2_CH_SEA
 10
0.112714
 20
-0.0384932
 30
0
  0
VERTEX
  8
72_ARTEK_AKFURNITURE_D2_CH_SEA
 10
0.112718
 20
-0.0430931
 30
0
  0
VERTEX
  8
72_ARTEK_AKFURNITURE_D2_CH_SEA
 10
0.112724
 20
-0.0489173
 30
0
  0
VERTEX
  8
72_ARTEK_AKFURNITURE_D2_CH_SEA
 10
0.11273
 20
-0.0559659
 30
0
  0
VERTEX
  8
72_ARTEK_AKFURNITURE_D2_CH_SEA
 10
0.112738
 20
-0.0642388
 30
0
  0
VERTEX
  8
72_ARTEK_AKFURNITURE_D2_CH_SEA
 10
0.112747
 20
-0.0737361
 30
0
  0
VERTEX
  8
72_ARTEK_AKFURNITURE_D2_CH_SEA
 10
0.112767
 20
-0.0962809
 30
0
  0
VERTEX
  8
72_ARTEK_AKFURNITURE_D2_CH_SEA
 10
0.112786
 20
-0.117793
 30
0
  0
VERTEX
  8
72_ARTEK_AKFURNITURE_D2_CH_SEA
 10
0.1128
 20
-0.13509
 30
0
  0
VERTEX
  8
72_ARTEK_AKFURNITURE_D2_CH_SEA
 10
0.112809
 20
-0.148172
 30
0
  0
VERTEX
  8
72_ARTEK_AKFURNITURE_D2_CH_SEA
 10
0.112814
 20
-0.15704
 30
0
  0
VERTEX
  8
72_ARTEK_AKFURNITURE_D2_CH_SEA
 10
0.112814
 20
-0.162229
 30
0
  0
VERTEX
  8
72_ARTEK_AKFURNITURE_D2_CH_SEA
 10
0.112812
 20
-0.172875
 30
0
  0
VERTEX
  8
72_ARTEK_AKFURNITURE_D2_CH_SEA
 10
0.112807
 20
-0.185608
 30
0
  0
VERTEX
  8
72_ARTEK_AKFURNITURE_D2_CH_SEA
 10
0.112804
 20
-0.192229
 30
0
  0
VERTEX
  8
72_ARTEK_AKFURNITURE_D2_CH_SEA
 10
0.112802
 20
-0.197708
 30
0
  0
VERTEX
  8
72_ARTEK_AKFURNITURE_D2_CH_SEA
 10
0.112799
 20
-0.202007
 30
0
  0
VERTEX
  8
72_ARTEK_AKFURNITURE_D2_CH_SEA
 10
0.112798
 20
-0.205125
 30
0
  0
VERTEX
  8
72_ARTEK_AKFURNITURE_D2_CH_SEA
 10
0.112793
 20
-0.209662
 30
0
  0
VERTEX
  8
72_ARTEK_AKFURNITURE_D2_CH_SEA
 10
0.112785
 20
-0.214111
 30
0
  0
VERTEX
  8
72_ARTEK_AKFURNITURE_D2_CH_SEA
 10
0.112773
 20
-0.220427
 30
0
  0
VERTEX
  8
72_ARTEK_AKFURNITURE_D2_CH_SEA
 10
0.112758
 20
-0.228609
 30
0
  0
VERTEX
  8
72_ARTEK_AKFURNITURE_D2_CH_SEA
 10
0.112738
 20
-0.238424
 30
0
  0
VERTEX
  8
72_ARTEK_AKFURNITURE_D2_CH_SEA
 10
0.112689
 20
-0.256348
 30
0
  0
VERTEX
  8
72_ARTEK_AKFURNITURE_D2_CH_SEA
 10
0.112627
 20
-0.270726
 30
0
  0
VERTEX
  8
72_ARTEK_AKFURNITURE_D2_CH_SEA
 10
0.112562
 20
-0.281529
 30
0
  0
VERTEX
  8
72_ARTEK_AKFURNITURE_D2_CH_SEA
 10
0.112513
 20
-0.28871
 30
0
  0
VERTEX
  8
72_ARTEK_AKFURNITURE_D2_CH_SEA
 10
0.112459
 20
-0.293207
 30
0
  0
VERTEX
  8
72_ARTEK_AKFURNITURE_D2_CH_SEA
 10
0.112289
 20
-0.300278
 30
0
  0
VERTEX
  8
72_ARTEK_AKFURNITURE_D2_CH_SEA
 10
0.111989
 20
-0.310654
 30
0
  0
VERTEX
  8
72_ARTEK_AKFURNITURE_D2_CH_SEA
 10
0.111706
 20
-0.320604
 30
0
  0
VERTEX
  8
72_ARTEK_AKFURNITURE_D2_CH_SEA
 10
0.111517
 20
-0.328147
 30
0
  0
VERTEX
  8
72_ARTEK_AKFURNITURE_D2_CH_SEA
 10
0.111244
 20
-0.340562
 30
0
  0
VERTEX
  8
72_ARTEK_AKFURNITURE_D2_CH_SEA
 10
0.110247
 20
-0.368459
 30
0
  0
VERTEX
  8
72_ARTEK_AKFURNITURE_D2_CH_SEA
 10
0.109894
 20
-0.383025
 30
0
  0
VERTEX
  8
72_ARTEK_AKFURNITURE_D2_CH_SEA
 10
0.109947
 20
-0.394838
 30
0
  0
VERTEX
  8
72_ARTEK_AKFURNITURE_D2_CH_SEA
 10
0.110012
 20
-0.40318
 30
0
  0
VERTEX
  8
72_ARTEK_AKFURNITURE_D2_CH_SEA
 10
0.11009
 20
-0.408049
 30
0
  0
VERTEX
  8
72_ARTEK_AKFURNITURE_D2_CH_SEA
 10
0.11026
 20
-0.411567
 30
0
  0
VERTEX
  8
72_ARTEK_AKFURNITURE_D2_CH_SEA
 10
0.110404
 20
-0.413813
 30
0
  0
VERTEX
  8
72_ARTEK_AKFURNITURE_D2_CH_SEA
 10
0.110677
 20
-0.416424
 30
0
  0
VERTEX
  8
72_ARTEK_AKFURNITURE_D2_CH_SEA
 10
0.111238
 20
-0.4185
 30
0
  0
VERTEX
  8
72_ARTEK_AKFURNITURE_D2_CH_SEA
 10
0.11306
 20
-0.421939
 30
0
  0
VERTEX
  8
72_ARTEK_AKFURNITURE_D2_CH_SEA
 10
0.115437
 20
-0.426067
 30
0
  0
VERTEX
  8
72_ARTEK_AKFURNITURE_D2_CH_SEA
 10
0.117896
 20
-0.428427
 30
0
  0
VERTEX
  8
72_ARTEK_AKFURNITURE_D2_CH_SEA
 10
0.124291
 20
-0.429617
 30
0
  0
VERTEX
  8
72_ARTEK_AKFURNITURE_D2_CH_SEA
 10
0.128756
 20
-0.429746
 30
0
  0
VERTEX
  8
72_ARTEK_AKFURNITURE_D2_CH_SEA
 10
0.133107
 20
-0.429857
 30
0
  0
VERTEX
  8
72_ARTEK_AKFURNITURE_D2_CH_SEA
 10
0.140501
 20
-0.430103
 30
0
  0
VERTEX
  8
72_ARTEK_AKFURNITURE_D2_CH_SEA
 10
0.146195
 20
-0.430278
 30
0
  0
VERTEX
  8
72_ARTEK_AKFURNITURE_D2_CH_SEA
 10
0.155043
 20
-0.43053
 30
0
  0
VERTEX
  8
72_ARTEK_AKFURNITURE_D2_CH_SEA
 10
0.164792
 20
-0.430778
 30
0
  0
VERTEX
  8
72_ARTEK_AKFURNITURE_D2_CH_SEA
 10
0.173388
 20
-0.430951
 30
0
  0
VERTEX
  8
72_ARTEK_AKFURNITURE_D2_CH_SEA
 10
0.183053
 20
-0.4311
 30
0
  0
VERTEX
  8
72_ARTEK_AKFURNITURE_D2_CH_SEA
 10
0.195378
 20
-0.431264
 30
0
  0
VERTEX
  8
72_ARTEK_AKFURNITURE_D2_CH_SEA
 10
0.207118
 20
-0.431421
 30
0
  0
VERTEX
  8
72_ARTEK_AKFURNITURE_D2_CH_SEA
 10
0.216372
 20
-0.431557
 30
0
  0
VERTEX
  8
72_ARTEK_AKFURNITURE_D2_CH_SEA
 10
0.287013
 20
-0.431941
 30
0
  0
VERTEX
  8
72_ARTEK_AKFURNITURE_D2_CH_SEA
 10
0.358513
 20
-0.431736
 30
0
  0
VERTEX
  8
72_ARTEK_AKFURNITURE_D2_CH_SEA
 10
0.50214
 20
-0.431938
 30
0
  0
VERTEX
  8
72_ARTEK_AKFURNITURE_D2_CH_SEA
 10
0.537735
 20
-0.431792
 30
0
  0
VERTEX
  8
72_ARTEK_AKFURNITURE_D2_CH_SEA
 10
0.555108
 20
-0.431611
 30
0
  0
VERTEX
  8
72_ARTEK_AKFURNITURE_D2_CH_SEA
 10
0.563721
 20
-0.431486
 30
0
  0
VERTEX
  8
72_ARTEK_AKFURNITURE_D2_CH_SEA
 10
0.57429
 20
-0.431339
 30
0
  0
VERTEX
  8
72_ARTEK_AKFURNITURE_D2_CH_SEA
 10
0.586975
 20
-0.431174
 30
0
  0
VERTEX
  8
72_ARTEK_AKFURNITURE_D2_CH_SEA
 10
0.59789
 20
-0.431018
 30
0
  0
VERTEX
  8
72_ARTEK_AKFURNITURE_D2_CH_SEA
 10
0.615714
 20
-0.430654
 30
0
  0
VERTEX
  8
72_ARTEK_AKFURNITURE_D2_CH_SEA
 10
0.625515
 20
-0.430385
 30
0
  0
VERTEX
  8
72_ARTEK_AKFURNITURE_D2_CH_SEA
 10
0.632664
 20
-0.430174
 30
0
  0
VERTEX
  8
72_ARTEK_AKFURNITURE_D2_CH_SEA
 10
0.64077
 20
-0.429908
 30
0
  0
VERTEX
  8
72_ARTEK_AKFURNITURE_D2_CH_SEA
 10
0.645979
 20
-0.429754
 30
0
  0
VERTEX
  8
72_ARTEK_AKFURNITURE_D2_CH_SEA
 10
0.648503
 20
-0.429708
 30
0
  0
VERTEX
  8
72_ARTEK_AKFURNITURE_D2_CH_SEA
 10
0.652522
 20
-0.429511
 30
0
  0
VERTEX
  8
72_ARTEK_AKFURNITURE_D2_CH_SEA
 10
0.656058
 20
-0.428911
 30
0
  0
VERTEX
  8
72_ARTEK_AKFURNITURE_D2_CH_SEA
 10
0.658428
 20
-0.427765
 30
0
  0
VERTEX
  8
72_ARTEK_AKFURNITURE_D2_CH_SEA
 10
0.660687
 20
-0.424919
 30
0
  0
VERTEX
  8
72_ARTEK_AKFURNITURE_D2_CH_SEA
 10
0.663263
 20
-0.420355
 30
0
  0
VERTEX
  8
72_ARTEK_AKFURNITURE_D2_CH_SEA
 10
0.664441
 20
-0.417657
 30
0
  0
VERTEX
  8
72_ARTEK_AKFURNITURE_D2_CH_SEA
 10
0.664832
 20
-0.415595
 30
0
  0
VERTEX
  8
72_ARTEK_AKFURNITURE_D2_CH_SEA
 10
0.665105
 20
-0.412176
 30
0
  0
VERTEX
  8
72_ARTEK_AKFURNITURE_D2_CH_SEA
 10
0.66527
 20
-0.409135
 30
0
  0
VERTEX
  8
72_ARTEK_AKFURNITURE_D2_CH_SEA
 10
0.665354
 20
-0.405857
 30
0
  0
VERTEX
  8
72_ARTEK_AKFURNITURE_D2_CH_SEA
 10
0.665425
 20
-0.399117
 30
0
  0
VERTEX
  8
72_ARTEK_AKFURNITURE_D2_CH_SEA
 10
0.665483
 20
-0.388905
 30
0
  0
VERTEX
  8
72_ARTEK_AKFURNITURE_D2_CH_SEA
 10
0.665438
 20
-0.375262
 30
0
  0
VERTEX
  8
72_ARTEK_AKFURNITURE_D2_CH_SEA
 10
0.664303
 20
-0.346683
 30
0
  0
VERTEX
  8
72_ARTEK_AKFURNITURE_D2_CH_SEA
 10
0.664004
 20
-0.33374
 30
0
  0
VERTEX
  8
72_ARTEK_AKFURNITURE_D2_CH_SEA
 10
0.663872
 20
-0.327649
 30
0
  0
VERTEX
  8
72_ARTEK_AKFURNITURE_D2_CH_SEA
 10
0.663676
 20
-0.319919
 30
0
  0
VERTEX
  8
72_ARTEK_AKFURNITURE_D2_CH_SEA
 10
0.663093
 20
-0.299609
 30
0
  0
VERTEX
  8
72_ARTEK_AKFURNITURE_D2_CH_SEA
 10
0.662934
 20
-0.2928
 30
0
  0
VERTEX
  8
72_ARTEK_AKFURNITURE_D2_CH_SEA
 10
0.662884
 20
-0.288283
 30
0
  0
VERTEX
  8
72_ARTEK_AKFURNITURE_D2_CH_SEA
 10
0.662833
 20
-0.280821
 30
0
  0
VERTEX
  8
72_ARTEK_AKFURNITURE_D2_CH_SEA
 10
0.662768
 20
-0.269738
 30
0
  0
VERTEX
  8
72_ARTEK_AKFURNITURE_D2_CH_SEA
 10
0.662707
 20
-0.255085
 30
0
  0
VERTEX
  8
72_ARTEK_AKFURNITURE_D2_CH_SEA
 10
0.662659
 20
-0.236886
 30
0
  0
VERTEX
  8
72_ARTEK_AKFURNITURE_D2_CH_SEA
 10
0.66264
 20
-0.227218
 30
0
  0
VERTEX
  8
72_ARTEK_AKFURNITURE_D2_CH_SEA
 10
0.662625
 20
-0.219326
 30
0
  0
VERTEX
  8
72_ARTEK_AKFURNITURE_D2_CH_SEA
 10
0.662613
 20
-0.213299
 30
0
  0
VERTEX
  8
72_ARTEK_AKFURNITURE_D2_CH_SEA
 10
0.662606
 20
-0.209139
 30
0
  0
VERTEX
  8
72_ARTEK_AKFURNITURE_D2_CH_SEA
 10
0.662602
 20
-0.204719
 30
0
  0
VERTEX
  8
72_ARTEK_AKFURNITURE_D2_CH_SEA
 10
0.6626
 20
-0.201418
 30
0
  0
VERTEX
  8
72_ARTEK_AKFURNITURE_D2_CH_SEA
 10
0.662598
 20
-0.196936
 30
0
  0
VERTEX
  8
72_ARTEK_AKFURNITURE_D2_CH_SEA
 10
0.662588
 20
-0.171975
 30
0
  0
VERTEX
  8
72_ARTEK_AKFURNITURE_D2_CH_SEA
 10
0.662586
 20
-0.161491
 30
0
  0
VERTEX
  8
72_ARTEK_AKFURNITURE_D2_CH_SEA
 10
0.662587
 20
-0.155941
 30
0
  0
VERTEX
  8
72_ARTEK_AKFURNITURE_D2_CH_SEA
 10
0.662592
 20
-0.14642
 30
0
  0
VERTEX
  8
72_ARTEK_AKFURNITURE_D2_CH_SEA
 10
0.662602
 20
-0.132684
 30
0
  0
VERTEX
  8
72_ARTEK_AKFURNITURE_D2_CH_SEA
 10
0.662617
 20
-0.114733
 30
0
  0
VERTEX
  8
72_ARTEK_AKFURNITURE_D2_CH_SEA
 10
0.662636
 20
-0.0925674
 30
0
  0
VERTEX
  8
72_ARTEK_AKFURNITURE_D2_CH_SEA
 10
0.662647
 20
-0.0810014
 30
0
  0
VERTEX
  8
72_ARTEK_AKFURNITURE_D2_CH_SEA
 10
0.662656
 20
-0.0706595
 30
0
  0
VERTEX
  8
72_ARTEK_AKFURNITURE_D2_CH_SEA
 10
0.662664
 20
-0.0615419
 30
0
  0
VERTEX
  8
72_ARTEK_AKFURNITURE_D2_CH_SEA
 10
0.662672
 20
-0.0536487
 30
0
  0
VERTEX
  8
72_ARTEK_AKFURNITURE_D2_CH_SEA
 10
0.662678
 20
-0.0469798
 30
0
  0
VERTEX
  8
72_ARTEK_AKFURNITURE_D2_CH_SEA
 10
0.662683
 20
-0.0415354
 30
0
  0
VERTEX
  8
72_ARTEK_AKFURNITURE_D2_CH_SEA
 10
0.662687
 20
-0.0373153
 30
0
  0
VERTEX
  8
72_ARTEK_AKFURNITURE_D2_CH_SEA
 10
0.66269
 20
-0.0343196
 30
0
  0
VERTEX
  8
72_ARTEK_AKFURNITURE_D2_CH_SEA
 10
0.662693
 20
-0.0317771
 30
0
  0
VERTEX
  8
72_ARTEK_AKFURNITURE_D2_CH_SEA
 10
0.662725
 20
-0.0101281
 30
0
  0
VERTEX
  8
72_ARTEK_AKFURNITURE_D2_CH_SEA
 10
0.662761
 20
0.0136965
 30
0
  0
VERTEX
  8
72_ARTEK_AKFURNITURE_D2_CH_SEA
 10
0.662782
 20
0.0270604
 30
0
  0
VERTEX
  8
72_ARTEK_AKFURNITURE_D2_CH_SEA
 10
0.662811
 20
0.0439353
 30
0
  0
VERTEX
  8
72_ARTEK_AKFURNITURE_D2_CH_SEA
 10
0.662849
 20
0.065265
 30
0
  0
VERTEX
  8
72_ARTEK_AKFURNITURE_D2_CH_SEA
 10
0.662896
 20
0.0905495
 30
0
  0
VERTEX
  8
72_ARTEK_AKFURNITURE_D2_CH_SEA
 10
0.662917
 20
0.101944
 30
0
  0
VERTEX
  8
72_ARTEK_AKFURNITURE_D2_CH_SEA
 10
0.662935
 20
0.111533
 30
0
  0
VERTEX
  8
72_ARTEK_AKFURNITURE_D2_CH_SEA
 10
0.66295
 20
0.119315
 30
0
  0
VERTEX
  8
72_ARTEK_AKFURNITURE_D2_CH_SEA
 10
0.662962
 20
0.125292
 30
0
  0
VERTEX
  8
72_ARTEK_AKFURNITURE_D2_CH_SEA
 10
0.66297
 20
0.129464
 30
0
  0
VERTEX
  8
72_ARTEK_AKFURNITURE_D2_CH_SEA
 10
0.662976
 20
0.13218
 30
0
  0
VERTEX
  8
72_ARTEK_AKFURNITURE_D2_CH_SEA
 10
0.662981
 20
0.134768
 30
0
  0
VERTEX
  8
72_ARTEK_AKFURNITURE_D2_CH_SEA
 10
0.662984
 20
0.136063
 30
0
  0
VERTEX
  8
72_ARTEK_AKFURNITURE_D2_CH_SEA
 10
0.66225
 20
0.135553
 30
0
  0
VERTEX
  8
72_ARTEK_AKFURNITURE_D2_CH_SEA
 10
0.658124
 20
0.131883
 30
0
  0
VERTEX
  8
72_ARTEK_AKFURNITURE_D2_CH_SEA
 10
0.655826
 20
0.130329
 30
0
  0
VERTEX
  8
72_ARTEK_AKFURNITURE_D2_CH_SEA
 10
0.65266
 20
0.128592
 30
0
  0
VERTEX
  8
72_ARTEK_AKFURNITURE_D2_CH_SEA
 10
0.650673
 20
0.127721
 30
0
  0
VERTEX
  8
72_ARTEK_AKFURNITURE_D2_CH_SEA
 10
0.648642
 20
0.126949
 30
0
  0
VERTEX
  8
72_ARTEK_AKFURNITURE_D2_CH_SEA
 10
0.645199
 20
0.125805
 30
0
  0
VERTEX
  8
72_ARTEK_AKFURNITURE_D2_CH_SEA
 10
0.637999
 20
0.123673
 30
0
  0
VERTEX
  8
72_ARTEK_AKFURNITURE_D2_CH_SEA
 10
0.63431
 20
0.122957
 30
0
  0
VERTEX
  8
72_ARTEK_AKFURNITURE_D2_CH_SEA
 10
0.628532
 20
0.121938
 30
0
  0
VERTEX
  8
72_ARTEK_AKFURNITURE_D2_CH_SEA
 10
0.622042
 20
0.120858
 30
0
  0
VERTEX
  8
72_ARTEK_AKFURNITURE_D2_CH_SEA
 10
0.61729
 20
0.12014
 30
0
  0
VERTEX
  8
72_ARTEK_AKFURNITURE_D2_CH_SEA
 10
0.612268
 20
0.119639
 30
0
  0
VERTEX
  8
72_ARTEK_AKFURNITURE_D2_CH_SEA
 10
0.608005
 20
0.11932
 30
0
  0
VERTEX
  8
72_ARTEK_AKFURNITURE_D2_CH_SEA
 10
0.603533
 20
0.119036
 30
0
  0
VERTEX
  8
72_ARTEK_AKFURNITURE_D2_CH_SEA
 10
0.601174
 20
0.118923
 30
0
  0
VERTEX
  8
72_ARTEK_AKFURNITURE_D2_CH_SEA
 10
0.59753
 20
0.118803
 30
0
  0
VERTEX
  8
72_ARTEK_AKFURNITURE_D2_CH_SEA
 10
0.59208
 20
0.118664
 30
0
  0
VERTEX
  8
72_ARTEK_AKFURNITURE_D2_CH_SEA
 10
0.585046
 20
0.11851
 30
0
  0
VERTEX
  8
72_ARTEK_AKFURNITURE_D2_CH_SEA
 10
0.578948
 20
0.118388
 30
0
  0
VERTEX
  8
72_ARTEK_AKFURNITURE_D2_CH_SEA
 10
0.574498
 20
0.118314
 30
0
  0
VERTEX
  8
72_ARTEK_AKFURNITURE_D2_CH_SEA
 10
0.570889
 20
0.118282
 30
0
  0
VERTEX
  8
72_ARTEK_AKFURNITURE_D2_CH_SEA
 10
0.567595
 20
0.118277
 30
0
  0
VERTEX
  8
72_ARTEK_AKFURNITURE_D2_CH_SEA
 10
0.563008
 20
0.118277
 30
0
  0
VERTEX
  8
72_ARTEK_AKFURNITURE_D2_CH_SEA
 10
0.557128
 20
0.118283
 30
0
  0
VERTEX
  8
72_ARTEK_AKFURNITURE_D2_CH_SEA
 10
0.549955
 20
0.118294
 30
0
  0
VERTEX
  8
72_ARTEK_AKFURNITURE_D2_CH_SEA
 10
0.533468
 20
0.118328
 30
0
  0
VERTEX
  8
72_ARTEK_AKFURNITURE_D2_CH_SEA
 10
0.520333
 20
0.118347
 30
0
  0
VERTEX
  8
72_ARTEK_AKFURNITURE_D2_CH_SEA
 10
0.511233
 20
0.118349
 30
0
  0
VERTEX
  8
72_ARTEK_AKFURNITURE_D2_CH_SEA
 10
0.504473
 20
0.11834
 30
0
  0
VERTEX
  8
72_ARTEK_AKFURNITURE_D2_CH_SEA
 10
0.495812
 20
0.118337
 30
0
  0
VERTEX
  8
72_ARTEK_AKFURNITURE_D2_CH_SEA
 10
0.47378
 20
0.118345
 30
0
  0
VERTEX
  8
72_ARTEK_AKFURNITURE_D2_CH_SEA
 10
0.464585
 20
0.118358
 30
0
  0
VERTEX
  8
72_ARTEK_AKFURNITURE_D2_CH_SEA
 10
0.457499
 20
0.118377
 30
0
  0
SEQEND
  0
POLYLINE
  8
72_ARTEK_AKFURNITURE_D2SNAP
 66
     1
 70
     0
 10
0.0
 20
0.0
 30
0.0
  0
VERTEX
  8
72_ARTEK_AKFURNITURE_D2SNAP
 10
0.4002
 20
-0
 30
0
  0
VERTEX
  8
72_ARTEK_AKFURNITURE_D2SNAP
 10
0.39996
 20
0.00243863
 30
0
  0
VERTEX
  8
72_ARTEK_AKFURNITURE_D2SNAP
 10
0.399248
 20
0.00478354
 30
0
  0
VERTEX
  8
72_ARTEK_AKFURNITURE_D2SNAP
 10
0.398093
 20
0.00694463
 30
0
  0
VERTEX
  8
72_ARTEK_AKFURNITURE_D2SNAP
 10
0.396539
 20
0.00883883
 30
0
  0
VERTEX
  8
72_ARTEK_AKFURNITURE_D2SNAP
 10
0.394645
 20
0.0103934
 30
0
  0
VERTEX
  8
72_ARTEK_AKFURNITURE_D2SNAP
 10
0.392484
 20
0.0115485
 30
0
  0
VERTEX
  8
72_ARTEK_AKFURNITURE_D2SNAP
 10
0.390139
 20
0.0122598
 30
0
  0
VERTEX
  8
72_ARTEK_AKFURNITURE_D2SNAP
 10
0.3877
 20
0.0125
 30
0
  0
VERTEX
  8
72_ARTEK_AKFURNITURE_D2SNAP
 10
0.385261
 20
0.0122598
 30
0
  0
VERTEX
  8
72_ARTEK_AKFURNITURE_D2SNAP
 10
0.382916
 20
0.0115485
 30
0
  0
VERTEX
  8
72_ARTEK_AKFURNITURE_D2SNAP
 10
0.380755
 20
0.0103934
 30
0
  0
VERTEX
  8
72_ARTEK_AKFURNITURE_D2SNAP
 10
0.378861
 20
0.00883883
 30
0
  0
VERTEX
  8
72_ARTEK_AKFURNITURE_D2SNAP
 10
0.377307
 20
0.00694463
 30
0
  0
VERTEX
  8
72_ARTEK_AKFURNITURE_D2SNAP
 10
0.376152
 20
0.00478354
 30
0
  0
VERTEX
  8
72_ARTEK_AKFURNITURE_D2SNAP
 10
0.37544
 20
0.00243863
 30
0
  0
VERTEX
  8
72_ARTEK_AKFURNITURE_D2SNAP
 10
0.3752
 20
3.15316e-018
 30
0
  0
VERTEX
  8
72_ARTEK_AKFURNITURE_D2SNAP
 10
0.37544
 20
-0.00243863
 30
0
  0
VERTEX
  8
72_ARTEK_AKFURNITURE_D2SNAP
 10
0.376152
 20
-0.00478354
 30
0
  0
VERTEX
  8
72_ARTEK_AKFURNITURE_D2SNAP
 10
0.377307
 20
-0.00694463
 30
0
  0
VERTEX
  8
72_ARTEK_AKFURNITURE_D2SNAP
 10
0.378861
 20
-0.00883883
 30
0
  0
VERTEX
  8
72_ARTEK_AKFURNITURE_D2SNAP
 10
0.380755
 20
-0.0103934
 30
0
  0
VERTEX
  8
72_ARTEK_AKFURNITURE_D2SNAP
 10
0.382916
 20
-0.0115485
 30
0
  0
VERTEX
  8
72_ARTEK_AKFURNITURE_D2SNAP
 10
0.385261
 20
-0.0122598
 30
0
  0
VERTEX
  8
72_ARTEK_AKFURNITURE_D2SNAP
 10
0.3877
 20
-0.0125
 30
0
  0
VERTEX
  8
72_ARTEK_AKFURNITURE_D2SNAP
 10
0.390139
 20
-0.0122598
 30
0
  0
VERTEX
  8
72_ARTEK_AKFURNITURE_D2SNAP
 10
0.392484
 20
-0.0115485
 30
0
  0
VERTEX
  8
72_ARTEK_AKFURNITURE_D2SNAP
 10
0.394645
 20
-0.0103934
 30
0
  0
VERTEX
  8
72_ARTEK_AKFURNITURE_D2SNAP
 10
0.396539
 20
-0.00883883
 30
0
  0
VERTEX
  8
72_ARTEK_AKFURNITURE_D2SNAP
 10
0.398093
 20
-0.00694463
 30
0
  0
VERTEX
  8
72_ARTEK_AKFURNITURE_D2SNAP
 10
0.399248
 20
-0.00478354
 30
0
  0
VERTEX
  8
72_ARTEK_AKFURNITURE_D2SNAP
 10
0.39996
 20
-0.00243863
 30
0
  0
VERTEX
  8
72_ARTEK_AKFURNITURE_D2SNAP
 10
0.4002
 20
-0
 30
0
  0
SEQEND
  0
POLYLINE
  8
72_ARTEK_AKFURNITURE_D2SNAP
 66
     1
 70
     0
 10
0.0
 20
0.0
 30
0.0
  0
VERTEX
  8
72_ARTEK_AKFURNITURE_D2SNAP
 10
0.370022
 20
-0.0176777
 30
0
  0
VERTEX
  8
72_ARTEK_AKFURNITURE_D2SNAP
 10
0.405378
 20
0.0176777
 30
0
  0
SEQEND
  0
POLYLINE
  8
72_ARTEK_AKFURNITURE_D2SNAP
 66
     1
 70
     0
 10
0.0
 20
0.0
 30
0.0
  0
VERTEX
  8
72_ARTEK_AKFURNITURE_D2SNAP
 10
0.370022
 20
0.0176777
 30
0
  0
VERTEX
  8
72_ARTEK_AKFURNITURE_D2SNAP
 10
0.405378
 20
-0.0176777
 30
0
  0
SEQEND
  0
ENDBLK
  8
0
  0
BLOCK
  8
0
  2
OB2D__000001
 70
    64
 10
0.0
 20
0.0
 30
0.0
  3
OB2D__000001
  0
ENDBLK
  8
0
  0
ENDSEC
  0
SECTION
  2
ENTITIES
  0
INSERT
  8
72OFGO2D01_GRAFIK
  2
OB2D__000000
 10
0.0
 20
0.0
 30
0.0
  0
INSERT
  8
72OFGO2D01_GRAFIK
  2
OB2D__000001
 10
0.0
 20
0.0
 30
0.0
  0
ENDSEC
  0
EOF
